Song name
# A B C D E F G H I J K L M N O P Q R S T U V W X Y Z

Across Five Aprils - Miss Mistress tab

Help us improve GuitareTab! Take a short survey!
Across Five Aprils - Miss Mistress (Record: Collapse) 

Listen to the song, to get in the timing!

Part 1:
e|---------------------------------------|
h|---------------------------------------|
g|-----1--------4--------6---------------|
D|--------------------------------4------|
A|---2--------6--------9--------2--------|
E|-0--------4--------7-------2-----------|

Part 2: 
e|-------------------------------|
h|-------------------------------|
g|-------------------------------|
D|---------------------11--9-----|
A|9---7--11---9---9-11-------7---|
E|--7-------9--------------------|

Thx 4 ratings & comments! 
Related for Miss Mistress tab