Guitaretab - guitar tabs
Song name
# A B C D E F G H I J K L M N O P Q R S T U V W X Y Z

Across Five Aprils - Darkest Road tab

-------------------------------------------------------------------------------
			     Darkest Road Ė Across Five Aprils
-------------------------------------------------------------------------------
Tabbed by: Thijs
Email: thijs_p@hotmail.com
Tuning: Drop C

Intro

e|---------------------------------------------------------------------------|
B|---------------------------------------------------------------------------|
G|---------------------------------------------------------------------------|
D|---------------------------------------------------------------------------|
A|---------------------------------------------------------------------------|
E|--0-0-0--5-3-0---0-0-0--7-5-0--5-3---5-3-0---0-0-0--7-5-0--5-3-------------|
    . . .          . . .                       . . .       


Verse

e|---------------------------------------------------------------------------|
B|---------------------------------------------------------------------------|
G|---------------------------------------------------------------------------|
D|--5-3-0---0-0-0--7-5-0--5-3---5-3-0---0-0-0--7-5-0--5-3--------------------|
A|--5-3-0---0-0-0--7-5-0--5-3---5-3-0---0-0-0--7-5-0--5-3--------------------|
E|--5-3-0---0-0-0--7-5-0--5-3---5-3-0---0-0-0--7-5-0--5-3--------------------|
            . . .                       . . .

Chorus (2x)

e|---------------------------------------------------------------------------|
B|---------------------------------------------------------------------------|
G|-5/7-777777-101010\9-9999999999-14-141414141414\12-121212121212-5/777------|
D|-x-x-xxxxxx-x-x-x--x-xxxxxxxxxx-x--x-x-x-x-x-x--x--x-x-x-x-x-x--x-xxx------|
A|-3/5-555555-8-8-8-\7-7777777777-12-121212121212\10-101010101010-3/555------|
E|---------------------------------------------------------------------------|


Repeat Verse 
Repeat Chorus

[ Tab from: http://www.guitaretab.com/a/across-five-aprils/116883.html ]
Pre-Bridge
e|---------------------------------------------------------------------------|
B|---------------------------------------------------------------------------|
G|--5/777~--9/101010~-12-141414~--5-777~-------------------------------------|
D|--x-xxx---x-x-x-x---x--x-x-x----x-xxx--------------------------------------|
A|--3/555~--7/8-8-8~--10/121212~--3/555~-------------------------------------|
E|---------------------------------------------------------------------------|

Bridge (donít have the soft-part)
		<----Do this part 3 times------>
e|-------------|-------------------------------|-----------------------------|
B|-------------|-------------------------------|-----------------------------|
G|-------------|-------------------------------|-----------------------------|
D|--\\\-1-0000-|-0-000--1-0000--0-000--7\-0000-|-0-000-1-0000----------------|
A|--\\\-1-0000-|-0-000--1-0000--0-000--7\-0000-|-0-000-1-0000----------------|
E|--\\\-1-0000-|-0-000--1-0000--0-000--7\-0000-|-0-000-1-0000----------------|
          ....   . ...    ....  . ...     ....   . ...   ....


Pre-Chorus
e|---------------------------------------------------------------------------|
B|---------------------------------------------------------------------------|
G|------7---7----------------------------------------------------------------|
D|--0-0-x-0-x-0-7-7--0-0000--------------------------------------------------|
A|--0-0-5-0-5-0-7-7--0-0000--------------------------------------------------|
E|--0-0---0---0-7-7--0-0000--------------------------------------------------|
                     . ....

Repeat Chorus
 
Outro (repeat till end)
e|---------------------------------------------------------------------------|
B|---------------------------------------------------------------------------|
G|------7---7---5-5-----10-10-9-7--------------------------------------------|
D|--0-0-x-0-x-0-x-x--0--x--x--x-x--------------------------------------------|
A|--0-0-5-0-5-0-3-3--0--8--8--7-5--------------------------------------------|
E|--0-0---0---0------0-------------------------------------------------------|



| /  slide up
| \  slide down
| h  hammer-on
| p  pull-off
| ~  vibrato
| +  harmonic
| .  Mute note
===============================================================================

Related for Darkest Road tab