Song name
# A B C D E F G H I J K L M N O P Q R S T U V W X Y Z

Across Five Aprils - Through The Pane tab

-----------------------------------------------------------------
Through The Pane - Across Five Aprils
-----------------------------------------------------------------
Tabbed by: Danny Hecht
Email: theuprising191@netscape.net

Tuning: Open G   D G D G B D(low to high)

Intro
D|----0-----0----0----0-----0-----0-----0-----0-----0-----0---0---|
B|----8-----8----8----8-----7-----7-----7-----7-----7h8---8---8---|
G|----0-----0----0----0-----0-----0-----0-----0-----0-----0---0---|
D|----0-----0----0----0-----0-----0-----0-----0-----0-----0---0---|
G|----0-----0----0----0-----0-----0-----0-----0-----0-----0---0---|
D|----0-----0----0----0-----0-----0-----0-----0-----0-----0---0---|


D|----0-----0----0----0-----0-----0-----0-----0-----0-----0---0---|
B|----8-----8----8----8-----7-----7-----7-----7-----7h8---8---8---|
G|----0-----0----0----0-----0-----0-----0-----0-----0-----0---0---|
D|----0-----0----0----0-----0-----0-----0-----0-----0-----0---0---|
G|----0-----0----0----0-----0-----0-----0-----0-----0-----0---0---|
D|----0-----0----0----0-----0-----0-----0-----0-----0-----0---0---|

D|----0-----0----0----0-----0-----0-----0-----0-----0-----0---0---|
B|----8-----8----8----8-----7-----7-----7-----7-----7h8---8---8---|
G|----0-----0----0----0-----0-----0-----0-----0-----0-----0---0---|
D|----0-----0----0----0-----0-----0-----0-----0-----0-----0---0---|
G|----0-----0----0----0-----0-----0-----0-----0-----0-----0---0---|
D|----0-----0----0----0-----0-----0-----0-----0-----0-----0---0---|

Chorus(not too sure about this but just work with it)

D|----0-----0----0----0-----0-----0-----0-----0-----|
B|----8-----8----8----8----10----10----10----10-----|
G|----0-----0----0----0-----0-----0-----0-----0-----|
D|----0-----0----0----0-----0-----0-----0-----0-----|
G|----0-----0----0----0-----0-----0-----0-----0-----|
D|----0-----0----0----0-----0-----0-----0-----0-----|


D|----0-----0----0----0-----0-----0-----0-----0-----|
B|----8-----8----8----8----10----10----10----10-----|
G|----0-----0----0----0-----0-----0-----0-----0-----|
D|----0-----0----0----0-----0-----0-----0-----0-----|
G|----0-----0----0----0-----0-----0-----0-----0-----|
D|----0-----0----0----0-----0-----0-----0-----0-----|

A5A
http://www.acrossfiveaprils.us
Check em out. They are so good.
Tap to rate this tab
# A B C D E F G H I J K L M N O P Q R S T U V W X Y Z