Guitaretab - guitar tabs
Song name
# A B C D E F G H I J K L M N O P Q R S T U V W X Y Z

Actionslacks - Bury Me In The Blue Sea tab

[Intro]
E|-------------------------|
B|-------------------------|
G|-------------------------|
D|--0--0--0--0--0--0--0--0-|	X 2
A|-0--0--0--0--0--0--0--0--|
E|-------------------------|


[Verse1]

E|-------------------------|
B|-------------------------|
G|-----------2-------------|
D|--0--2--4-----4--2--4--2-|
A|-0--0--0--0--0--0--0--0--|
E|-------------------------|
Summer falls into a winter


E|-------------------------|
B|-------------------------|
G|-----------0-------------|
D|--0--2--4-----4--2--4--2-|
A|-1--1--1--1--1--1--1--1--|
E|-------------------------|
Evening falls in mid-December


E|-------------------------|
B|-------------------------|
G|-------------------------|
D|--0--2--4--5--4--2--4--2-|
A|-------------------------|
E|-3--3--3--3--3--3--3--3--|
Everyone is running home to sleep


[Break]
[ Tab from: http://www.guitaretab.com/a/actionslacks/114557.html ]
E|-------------------------|
B|-------------------------|
G|-------------------------|
D|--0--0--0--0--0--0--0--0-|
A|-0--0--0--0--0--0--0--0--|
E|-------------------------|


[Verse2]

I put on the coat you bought me
Take the stairs down to the lobby
And walk into the chilly evening air


[Break]

E|-------------------------|
B|-------------------------|
G|-------------------------|
D|--0--0--0--0--0--0--0--0-|
A|-0--0--0--0--0--0--0--0--|
E|-------------------------|


[Chorus]

E|-------------------------|
B|-------------------------|
G|-------------------------|
D|--0--0--0--0--0--0--0--0-|
A|-0--0--0--0--0--0--0--0--|
E|-------------------------|
And I've never felt this good

E|-------------------------|
B|-------------------------|
G|-------------------------|
D|--0--0--0--0--0--0--0--0-|
A|-1--1--1--1--1--1--1--1--|
E|-------------------------|
I'll never feel this good

E|-------------------------|
B|-------------------------|
G|-------------------------|
D|--0--0--0--0--0--0--0--0-|
A|-------------------------|
E|-3--3--3--3--3--3--3--3--|
If I ever feel this good again

Stick a sword right through me
Bury me in the blue sea
And that'll be the end
Related for Bury Me In The Blue Sea tab