Song name
# A B C D E F G H I J K L M N O P Q R S T U V W X Y Z

Active Member - Himonas Winter tab

Here is a very beauftiful song by the greek low bap band Active Member.
The title Himonas  means winter.
The only reasons why i upload this is due the great melody it has and the 
simplicity of its two riffs.
Please dedicate some time to hear it its worth the 3 minutes and 45 seconds the song lasts.
You can hear it here : http://www.youtube.com/watch?v=c-ux5_HjVfg

E ---------------------------|
B ---0-0-0------1-0----------|
G ----0-0-0-4/5---0----------|      X2
D ---------------------------|
A ------------0--------------|
E 0--------------------------|

E ----------------------|
B ---5-5-5-5/7--5--5/8--|
G ----5-5-5--------5----|
D ----------------------|
A 0---------------------|
E ----------------------|
and you repeat these 2 riffs again.


grrek low bap site http://www.lowbap.com/el
Tap to rate this tab
# A B C D E F G H I J K L M N O P Q R S T U V W X Y Z