Song name
# A B C D E F G H I J K L M N O P Q R S T U V W X Y Z

Actual Tigers - Bourgeois Blues tab

  Song: Bourgeois Blues
 Album: Gravelled & Green
Artist: Actual Tigers (http://www.actualtigers.com/)
-------------------------------------------------------------------------------
Tabbed by: Hunter Morris
Email: hunterbmorris@gmail.com

Tuning: Standard (E A D G B e)


Intro/Verses:
 e|-----------------------------1---------3------------|
 B|-----1---------2^------------3-----------0----------|
 G|-----0-----------------------2----------------------|
 D|-----2-------------------2-0----------------------0-|
 A|--3--3---2p1p0-----0-2-4----------------------0-2---|
 E|--------------------------------0h1-3-------3-------|

 e|-----------------------------1----------------------|
 B|-----1---------2^------------3---------5--5~~~~~~~~-|
 G|-----0-----------------------2---------7^-7^~~~~~~~-|
 D|-----2-------------------2-0------------------------|
 A|--3--3---2p1p0-----0-2-4----------------------------|
 E|--------------------------------0h1-3---------------|

During the chorus, play the root chords from the intro.
 C  Dm  G  C
Tap to rate this tab
# A B C D E F G H I J K L M N O P Q R S T U V W X Y Z