Song name
# A B C D E F G H I J K L M N O P Q R S T U V W X Y Z

Ad Hominem - Arbeit Macht Tot tab

Band   Ad Hominem
Album: ... For A New World
Song:  Arbeit Macht Tot

Transcribed By: Tristis Faber
Email:         lisan95@mail.ru

Tuning E A D G B E


/ - slide up to  
\ - slide down to 
~ - vibrato
" " tremolo note 


Riff  A (tempo=155)                                
|----------------------------------------------------| 
|----------------------------------------------------| 
|-------"5-------------------------------------------|  
|-------"3-------------------------------------------|
|--"3--------"3--"4---5\4----"7---\"6---\"5----------|
|--"1--------"1--"2---3\2----"5---\"4---\"3----------| 


Riff  B (tempo=180) (for first play - channels - L-R-L, then both)                              x3
|----------------------------------------------------| 
|----------------------------------------------------| 
|----------------------------------------------------|  
|----------------------------------------------------|
|--3-----------3-----------3-----------/6---3/7------|
|--1--1-1-1-1--1--1-1-1-1--1--1-1-1-1--/4---1/5------| 
                                                   x1
|----------------------------------------------------| 
|----------------------------------------------------| 
|----------------------------------------------------|  
|----------------------------------------------------|
|--3-----------3-----------/6--4-4-4--7-7-7-7--------|
|--1--1-1-1-1--1--1-1-1-1--/4--2-2-2--5-5-5-5--------|


Riff  C (tempo=155)                                
|----------------------------------| |----------------------------------|
|----------------------------------| |----------------------------------|
|-------"5--4-4--"6----------------| |-------"5--4-4--"6----------------|
|-------"3--2-2--"4--------"6--"4--| |-------"3--2-2--"4--------"8--"4--|
|--"3-----------------"3---"4--"2--| |--"3-----------------"3---"6--"2--|
|--"1-----------------"1-----------| |--"1-----------------"1-----------|


Riff  D (tempo=167)                                             x2
|-----------------------------------------------------------------| 
|-----------------------------------------------------------------| 
|-----------------------------------------------------------------| 
|-----------------------------------------------------------------| 
|--3--3-3-3-------3--3-3-3--------3--3-3-3-------3--3-3-----------| 
|--1--1-1-1---~2--1--1-1-1---~4---1--1-1-1---~2--1--1-1---5-4-2-4-|

                                                                x2
|-----------------------------------------------------------------| 
|-----------------------------------------------------------------| 
|-----------------------------------------------------------------| 
|-----------------------------------------------------------------| 
|--6--6-6-6-------6--6-6-6--------6--6-6-6-------6--6-6-----------| 
|--4--4-4-4---~5--4--4-4-4---~3---4--4-4-4---~5--4--4-4---8-7-5-7-|  


Riff  E (tempo=155)             x3              x1
|---------------------------------| |-------------|
|---------------------------------| |-------------|
|--"10----"6----"5--"3--"6--"3----| |--"10----"6--|
|---------------------------------| |-------------|
|---------------------------------| |-------------|
|---------------------------------| |-------------|




Riff A x4
Riff B x3 
Riff C x4
Riff D x2
Riff C x2
Riff E x1
Riff D x2
Riff A x4
after pause
Riff A x1


http://www.death-to-all.com/
http://www.myspace.com/adhominemhq
Tap to rate this tab
 
# A B C D E F G H I J K L M N O P Q R S T U V W X Y Z