Song name
# A B C D E F G H I J K L M N O P Q R S T U V W X Y Z

Ada Band - Haruskah Mati tab

Alya
wanted indonesian song (band or solo) tab?
contact my email at hd03112003@yahoo.com (just for help)

If you hate your girl, play this song whith heart in front of... 
she 'll know that you love her last day. but to day?....

Hingga akhir massa... (3:07) 
 Bb                      Am         Dm Gm              C     F
E------------------------------/13-14^^-------------------------------------I
B-/13b15^^r13^^\11-h13p11p10^^----------11b13-b13r11-10-11^^--/11-10-8-8/10-I
G---------------------------------------------------------------------------I
D---------------------------------------------------------------------------I
A---------------------------------------------------------------------------I
E---------------------------------------------------------------------------I

   Bb                       Am        Dm   D#               D#

E-----------------------------15-12-13^^-I--------------------------20--------I
B--/13b15^^r13^^\11-h13p11p10------------I-/20b22-b22-r20^^-18-20b22--b22r20^^I
G----------------------------------------I------------------------------------I
D----------------------------------------I------------------------------------I
A----------------------------------------I------------------------------------I
E----------------------------------------I------------------------------------I

  E
E-----------------16-18b19-b19^^--16h18p16p14^^^\--I
B----17-----19-------------------------------------I
G-16-----16----16----------------------------------I
D--------------------------------------------------I
A--------------------------------------------------I
E--------------------------------------------------I

enjoy it.
padang kucinta dan kubela
Tap to rate this tab
# A B C D E F G H I J K L M N O P Q R S T U V W X Y Z