Song name
# A B C D E F G H I J K L M N O P Q R S T U V W X Y Z

Ada Band - Karena Wanita tab

e|-----------------------------------------------------------------|
B|-10p9h10-9-----------------------10p9h10-12-14-14-10-14-12-------|
G|----------11-11-9-7-7--------------------------------------------|
D|----------------------11-9-9-7-----------------------------------|
A|-----------------------------------------------------------------|
E|-----------------------------------------------------------------|

e|----------------------13-13\14b--16-19\21b--19-------------------|
B|---------9-12\14b-12---------------------------------------------|
G|--10\11b---------------------------------------------------------|
D|-----------------------------------------------------------------|
A|-----------------------------------------------------------------|
E|-----------------------------------------------------------------|



Tap to rate this tab
 
# A B C D E F G H I J K L M N O P Q R S T U V W X Y Z