Song name
# A B C D E F G H I J K L M N O P Q R S T U V W X Y Z

Adagio - Vamphyri tab

Here is my tab for Adagio's Vamphyri.
I only put the first riff since I play guitar only for two years and the half.
Also, I'm not pretty sure of it.
Please rate.
PS : Be careful, it is played on a seven strings guitar, and since I only have six 
strings on my guitar, I tuned it 2 steps down so I have the B on the first E string,
the F on the A string etc... but I'm not sure about the tuning.

F|------------------------------------------------------------------|
C|------------------------------------------------------------------|
G#|-----------------------------------------------------------------|
D#|-----------------------------------------------------------------|
A#|-----------------------------------------------------------------|
F|----------7/10\7---------------------------7/10\7--------------5--|
C|--0-0-0-0-5/8 \5---0-0-0-0-6-5-0-2-3-2-0-0-5/8 \5--0-0-0-0-0-0-3--|
   
F|------------------------------------------------------------------|
C|------------------------------------------------------------------|
G#|-----------------------------------------------------------------|
D#|-----------------------------------------------------------------|
A#|-----------------------------------------------------------------|
F|--5\4-----7/10\7---------------------------7/10\7-----------------|
C|--3\2-0-0-5/8 \5-0-0-0-0-0-6-5-0-2-3-2-0-0-5/8 \5-----------------|
Tap to rate this tab
# A B C D E F G H I J K L M N O P Q R S T U V W X Y Z