Song name
# A B C D E F G H I J K L M N O P Q R S T U V W X Y Z

Adair - The Diamond Ring tab

The Diamond Ring
By: Adair


Okay so this is the REAL way to play the intro to this. 
Im 100% sure it's the correct way. 
This song is in Drop Db or C# by the way, 
it gives it that slight dark quality to the song

From Low To High (DbAbDbGbBbEb) or (C#G#C#F#A#D#)

Key
---
* Harmonic
Pm... Palm Mute
x Dead Note 
//-Slide Downwards 
\\-Slide Upwards   
U-Upstroke
D-Downstroke

Clean Part Guitar 1
Eb|-------------------------------------|-----------------------|
Bb|-------------------------------------|-----------7*----------|
Gb|---------------------12*-------------|--------------7*----7*-|
Db|-------------12*---------12*------12*|-----5*----------7*----|
Ab|---------12*-----12*----------12*----|--5*----5*-------------|
Db|--12*-12*----------------------------| ----------------------|


Eb|---------------------------------------------|
Bb|-----------7*--------------5*--7*------------|
Gb|--------------7*----7*------------7*---------|
Db|-----5*----------7*-----7*-----------7*------| (Repeat whole thing twice)
Ab|--5*----5*------------------------------7*---|
Db|-------------------------------------------7*| 

Distortion Part Both Guitars (2x)
     D  U U
Eb|---------------------------------------|
Bb|---------------------------------------|
Gb|-----------9/7-7777-----------9/7-7777-|
Db|--0--0-0---x/x-xxxx--0--0-0---x/x-xxxx-|
Ab|--0--0-0---7/5-5555--0--0-0---7/5-5555-|
Db|--0--0-0-------------0--0-0------------|

     D  U U                D  U U    Don't play this 2nd time through
Eb|----------------------------------------------------|
Bb|----------------------------------------------------|
Gb|-----------9\11-111111-----------9\11-111111--------|
Db|--5--5-5---x\x--xxxxxx--5--5-5---x\x--xxxxxx--5-5--5|
Ab|--5--5-5---7\9--999999--5--5-5---7\9--999999--5-5--5| ---- but play this
Db|--5--5-5----------------5--5-5----------------5-5--5|      2nd time

And thats it for the intro. if you have any comments our questions email me at 
dbo259@hotmail.com ill try the rest but i cant make any promises.

PS I MISS this band!
 
Tap to rate this tab
 
# A B C D E F G H I J K L M N O P Q R S T U V W X Y Z