Song name
# A B C D E F G H I J K L M N O P Q R S T U V W X Y Z

Adal Ramones - La Del Mono Colorado tab

E ---------------------------|------------------------|
B ---------------------------|------------------------|
G -9-9-9-9-9-8-9-4-6-6-------|------------------------|
D ---------------------------|------------------------|
A ---------------------------|------------------------|
E ---------------------------|------------------------|


E ---------------------------|------------------------|
B ---------------------------|------------------------|
G -9-9-9-9-9-8-9-4-----------|------------------------|
D -----------------6---------|------------------------|
A ---------------------------|------------------------|
E ---------------------------|------------------------|

E ---------------------------|------------------------|
B ---------------------------|------------------------|
G -9-9-9-9-9-8-9-4-6-6-------|------------------------|
D ---------------------------|------------------------|
A ---------------------------|------------------------|
E ---------------------------|------------------------|

E ---------------------------|------------------------|
B -------7-------------------|------------------------|
G -9-9-9---7--4--2-----------|---7h10p7h10p7----------|
D ---------------------------|------------------------|
A ---------------------------|------------------------|
E ---------------------------|------------------------|

E ---------------------------|------------------------|
B ---7h10p7h10p7-------------|---7h10p7h10p7----------|
G ---------------------------|------------------------|
D ---------------------------|------------------------|
A ---------------------------|------------------------|
E ---------------------------|------------------------|
Tap to rate this tab
 
# A B C D E F G H I J K L M N O P Q R S T U V W X Y Z