Song name
# A B C D E F G H I J K L M N O P Q R S T U V W X Y Z

Adalita - Hot Air tab

Tuning: Standard


Intro/Verse played throughout song

e|--------------------------------------------------|
B|--------------------------------------------------|
G|--------------------------------------------------|
D|--------13----------13----------11----------11----|
A|--9--9--9--9--9--9--9--9--9--9--9--9--9--9--9--9--|
E|-11-11-11-11-11-11-11-11--9--9--9--9--9--9--9--9--|


Main solo

e|--------------------------------------------------|
B|--------------------------------------------------|
G|--------------------------------------------------|
D|-------4--6--8--4------6---------4--6--6--4-------|
A|-4--6---------------4------4--6-------------------|
E|--------------------------------------------------|

e|--------------------------------------------------|
B|--------------------------------------------------|
G|--------------------------------------------------|
D|-------4--6--8--4------6---------4---------4------|
A|-4--6---------------4------4--6------4--6---------|
E|--------------------------------------------------|



Played on top of the main riff about half way through

e|--------------------------------------------------|
B|--------------------------------------------------|
G|--------------------------------------------------|
D|-9-9-9-9-9-9-9-9--4-4-4-4-4-4-4-4-----------------|
A|-9-9-9-9-9-9-9-9--4-4-4-4-4-4-4-4-----------------|
E|-7-7-7-7-7-7-7-7--2-2-2-2-2-2-2-2-----------------|



bits and pieces of the outro solo. sorry. lazy.

e|--------------------------------------------------|
B|--------------------------------------------------|
G|--------------------------------------------------|
D|-8/11--8/11--8/11--8/11--8/11--11-9--8------------|
A|---------------------------------------9----11----|
E|-----------------------------------------9------9-|

e|--------------------------------------------------|
B|--------------------------------------------------|
G|--------------------------------------------------|
D|--------------------------------------------------|
A|----9-11-13-11-13-14-11-13------11-11---11-11/13--|
E|-11------------------------14-9-------9-----------|


e|--------------------------------------------------|
B|--------------------------------------------------|
G|--------------------------------------------------|
D|-11-11--11-11---11-11-11--11-11-11--11-11-11------|
A|--------------9---------9---------9----------9----|
E|--------------------------------------------------|


e|--------------------------------------------------|
B|--------------------------------------------------|
G|-11/15-15-15-15-13-11-13-15-15-15-----------------|
D|--------------------------------------------------|
A|--------------------------------------------------|
E|--------------------------------------------------|
Tap to rate this tab
# A B C D E F G H I J K L M N O P Q R S T U V W X Y Z