Song name
# A B C D E F G H I J K L M N O P Q R S T U V W X Y Z

Adam And Andrew - Rap Sucks tab

Help us improve GuitareTab! Take a short survey!
Tuning: Drop D


This song's called rap s***s on itunes, but I guess it's sucks.


Verse
|---------------------------------|
|---------------------------------|
|---------------------------------|
|-x-x--x-xx-xx-x-x-0-0-x-xx-xx-xx-|
|-x-x--x-xx-xx-x-x-0-0-x-xx-xx-xx-|
|-x-x--x-xx-xx-x-x-0-0-x-xx-xx-xx-|


Chorus
|-----------------------------------------------------------------|
|-----------------------------------------------------------------|
|-------------------------------------------------2-2-222-5-5-555-|
|-0-0-000-000-000-3-3-333-333-333-5-5-555-555-555-2-2-222-5-5-555-|
|-0-0-000-000-000-3-3-333-333-333-5-5-555-555-555-0-0-000-3-3-333-|
|-0-0-000-000-000-3-3-333-333-333-5-5-555-555-555-----------------|


In the verse they mute the strings weirdly so you'll have to figure out
the timing for muting the strings and playing the open D's.
Related for Rap Sucks tab