Guitaretab - guitar tabs
Song name
# A B C D E F G H I J K L M N O P Q R S T U V W X Y Z

Adam And The Ants - Dog Eat Dog tab

Dog Eat Dog 
by Adam and the Ants
         G          Em                  C E
E--------3----------0-------------------0-0----|
B--------3----------0-------------------1-0----|
G--------0----------0-------------------0-1----|
D--------0----------2-------------------2-2----|
A--------2----------2--------0---0----3-3-2----|
E--0-2-3-3----3-2-0-0----0-3---3----------0----|

You may not like the things we do
Only idiots ignore the truth
It's easy to lay down and hide
Where's the warrior without his pride?

We're gonna move real good - yeah right
We're gonna dress so fine - O-K
It's
Dog eat dog eat dog eat dog
Eat dog eat dog eat dog eat dog
Fuck the doggie
And brush me daddy-O

D-9-9-9-9-7--9--7-7-7-7--5--7-|  
A-7-7-7-7-5--7--5-5-5-5--3--5-| (x2)
E-----------------------------|

It's easy to lay down and hide
Where's the warrior without his pride?
You may not like the things we say
What's the diffrence anyways?
[ Tab from: http://www.guitaretab.com/a/adam-and-the-ants/167774.html ]
We're gonna move real good - yeah right
We're gonna dress so fine - O-K
It's
Dog eat dog eat dog eat dog
Eat dog eat dog eat dog eat dog
Leapfrog the dog
And brush me daddy-O

D-9-9-9-9-7--9--7-7-7-7--5--7-|  
A-7-7-7-7-5--7--5-5-5-5--3--5-| (x2)
E-----------------------------|

         G          Em                  C E
E--------3----------0-------------------0-0----|
B--------3----------0-------------------1-0----|
G--------0----------0-------------------0-1----|
D--------0----------2-------------------2-2----|
A--------2----------2--------0---0----3-3-2----|
E--0-2-3-3----3-2-0-0----0-3---3----------0----| (x2)


         C          Am                  F A
E--------0----------0-------------------0-0----|
B--------1----------1-------------------1-2----|
G--------0----------2-------------------2-2----|
D--------2----------2--------0---0----3-3-2----|
A--0-2-3-3----3-2-0-0----0-3---3----------0----|
E----------------------------------------------| (x8 or fade)

It makes me proud so proud of you
I see innocence shining through
Related for Dog Eat Dog tab
×
Dog Eat Dog