Song name
# A B C D E F G H I J K L M N O P Q R S T U V W X Y Z

Adam And The Ants - Kings Of The Wild Frontier tab

Intro (Bass only)
         f
A new royal family
        c
A wild nobility
 f(low)
We are the family

A new royal family
A wild nobility
We are the family

Riff (play twice before verse)
----------------------------------------------------------------
----------------------------------------------------------------
----------------------------------------------------------------
---3---1-------------3---------1--------------------------6-----
-----------3-1------------------------3-1-----------------------
-----------------1----------------------------1----4-(ring)-----
I feel  be-neath the white there is a  red  - skin suf-fer-ing

-----------------------------------------
-----------------------------------------
-----------------------------------------
--------------------------------------3--
------------------3----------------------
--4---6---4---6------4--------1----------
 From cen-tur-ies of tam-ing

I feel beneath the white
There is a redskin suffering
From centuries of taming

(Muted strumming)
No method in our madness
Just pride about our manner
Ant-people are the warriors
Ant-music is the banner!

Solo
-----------------------------------------------------
-----------------------------------------------------
-----------------------------------------------------
-----3------1----3------1------1----3------3-------1-
-1-3----1-3----1----1-3----1-3----1----1-3-----1-3---
-----------------------------------------------------

     F5
A new royal family
     C5
A wild Nobility
  F5
We are the family

    F5
A new royal family
     C5
A wild Nobility
  F5
We are the family

(Muted strumming)
No method in our madness
Just pride about our manner
Ant-people are the warriors
Ant-music is the banner!

And even when you're healthy
And your colour schemes delight
Down below those dandy clothes
You're just a shade too white
Shade too white!
(First riff)
Shade too white!
Shade too white!
(Second riff)
Shade too white!

2nd riff (Played over first riff)
------------------------------------------------------------------
------------------------------------------------------------------
------------------------------------------------------3-----------
-3--5--6--8--10-----3--5--6--8--10--8--6------6--5--3-----6--5--3-
------------------------------------------------------------------
------------------------------------------------------------------

I feel beneath the white
There is a redskin suffering
From centuries of taming
Tap to rate this tab
# A B C D E F G H I J K L M N O P Q R S T U V W X Y Z