Song name
# A B C D E F G H I J K L M N O P Q R S T U V W X Y Z

Adam Dimarco - Now I Can Be The Real Me tab

Intro
E----x-x-x-x-x-x----x-x-x-x-x-x-|
A----7-7-7-7-7-7---/0-0-0-0-0-0-|
D----9-9-9-9-9-9---/2-2-2-2-2-2-|
G----9-9-9-9-9-9---/2-2-2-2-2-2-|
B----0-0-0-0-0-0---/0-0-0-0-0-0-|
e----0-0-0-0-0-0---/0-0-0-0-0-0-|
Verses
E----x-x-x-x-x-x----x-x-x-x-x-x--x-x-x---x-x-x----x-x-x---|
A----7-7-7-7-7-7---/0-0-0-0-0-0--4-4-4--/2-2-2---/0-0-0---|
D----9-9-9-9-9-9---/2-2-2-2-2-2--6-6-6--/4-4-4---/2-2-2---|
G----9-9-9-9-9-9---/2-2-2-2-2-2--6-6-6--/4-4-4---/2-2-2---|  x2
B----0-0-0-0-0-0---/0-0-0-0-0-0--0-0-0---0-0-0---/0-0-0---|
e----0-0-0-0-0-0---/0-0-0-0-0-0--0-0-0---0-0-0---/0-0-0---|

Bridge
E----x-x-x---x-x-x----x-x-x---|
A----4-4-4--/2-2-2---/0-0-0---|
D----6-6-6--/4-4-4---/2-2-2---|
G----6-6-6--/4-4-4---/2-2-2---|  x3
B----0-0-0---0-0-0---/0-0-0---|
e----0-0-0---0-0-0---/0-0-0---|

Choir
E----x-x-x-x-x-x----x-x-x-x-x-x--x-x-x---x-x-x----x-x-x---|
A----7-7-7-7-7-7---/0-0-0-0-0-0--4-4-4--/2-2-2---/0-0-0---|
D----9-9-9-9-9-9---/2-2-2-2-2-2--6-6-6--/4-4-4---/2-2-2---|
G----9-9-9-9-9-9---/2-2-2-2-2-2--6-6-6--/4-4-4---/2-2-2---|  x2
B----0-0-0-0-0-0---/0-0-0-0-0-0--0-0-0---0-0-0---/0-0-0---|
e----0-0-0-0-0-0---/0-0-0-0-0-0--0-0-0---0-0-0---/0-0-0---|
Tap to rate this tab
 
# A B C D E F G H I J K L M N O P Q R S T U V W X Y Z