Song name
# A B C D E F G H I J K L M N O P Q R S T U V W X Y Z

Adam Green - Country Road tab

Help us improve GuitareTab! Take a short survey!
kk this song was a little difficult to tab so i only got so far but for the rythym and 
on youtube there is a video of it http://youtube.com/watch?v=B3gwa4IbcEs so please 
this is an ill song let me no if yolu find anythig wrong  thx
rock on

also, a lot of the licks repeat this is basically the intro and a baseline of how the 
goes


\----------------3--5-------5-----5p3------------------------/
\------5----5s6-----------------------6h8-----------4-5p0----/
\-------------------------5---4----------------7--5----------/
\---5-----5-------------3------------------------------------/
\-3------------------------------------------7---------------/
\------------------------------------------------------------/


\------------------------------------------------------------/
\------------------------------------------------------------/
\--------7-5-5s0---------5---5------5-----5-----------2------/
\-----4--------------1s2---2---2------2-----2---0------------/
\------------------0--------------------------------3--------/
\---4-----------------------------3-----3-----3---1----------/

\------------------------------------------------------------/
\-------------1-3--------------------------------------------/
\-------0-0-0--0-0--------<>----/
\---4h5------------------------------------------------------/
\------------------------------------------------------------/
\------------------------------------------------------------/


----------------------------------0------------|
------5----5s3-----0----------3-----3----------|
-----------------5--------------------0--------|
---5-----5-----------------5----5--------------|
-3----------------------2----------------------|
-----------------------------------------------|

\-----------------0-------------------------------------------/
\---------1---1h3---0--------0---0h1p0-----------------0h1p0--/
\---------------------------------------0-------2--(o)------0-/
\----1h2----2-------------2----2------------------------------/
\--0------------------------------------------3---------------/
\-----------------------3-------------------1-----------------/
thats really all you need this was all just by listenign to it so some stuff may be wrong
Related for Country Road tab