Song name
# A B C D E F G H I J K L M N O P Q R S T U V W X Y Z

Adam Green - No Legs chords

Highlighted       Show chord diagrams
-------------------------------------------------------------------------------
                             Adam Green - No Legs
-------------------------------------------------------------------------------
Album : Friends of mine
Tempo : 95
E-mail: gwendal.mollo@orange.fr
Tabbed by: newg

Capo 3 

Chords : G* : xx543x     Em/G : xx545x 

intro/verse:
     G*      Em/G        G            D               G*       Em/G
e |--------------------|--------3---|---------2----|--------------------|
B |-----3-----5--------|---3--------|---3--------3-|-----3-----5--------|
G |--------4------4----|-----0------|-2---2-------2|--------4------4----|
D |--5---------------5-|------------|--------------|--5---------------5-|
A |--------------------|------------|--------------|--------------------|
E |--------------------|-3----------|--------------|--------------------|
                             
        G*                     G
There's no wrong way to fuck a girl with no legs
D                                   G*                   
Just tell her you love her as she's crawling away
        G*                     G                         
There's no wrong way to fuck a bitch with no faith
    D                     G*
Now you'll never be sad again

Chorus :
Em
Loving you are the two best things
                           Am
in a world that's skipping town
D
Reaching blind into the deepest mouth
                       E
in the brownest place around


There's something amiss in her cum-stained lips
So I get the first kiss before she takes the last bite
Genital outlaws in a positive way
And an everything bagel too

Chorus :
Em
Getting strangled by the junkie priest
                          Am
as the boys get stoned in school
D
there's a knock at your door and your parents come in
                                  E
they thought you were a different girl


So if you're alone when your parents aren't home
And no one can see your incestous tree
No need to contain what the sparrows can say
Now you'll never be sad again
Tap to rate this tab
 
# A B C D E F G H I J K L M N O P Q R S T U V W X Y Z