Song name
# A B C D E F G H I J K L M N O P Q R S T U V W X Y Z

Adam Haworth Stephens - Second Mind tab

Artist: Adam Haworth Stephens
Song: Second Mind
Album: We Live On Cliffs




http://adamhstephens.com/





Intro: listen to the song to find out how often to strum the C and the F at the end of the intro 

e|----------------------------------------------------------|
B|----------8--8-----8--8/10--8-----------------------------|
G|--7--7h9--------9--------------9/7--7/9--9/10--9--7/5-----|
D|-------------------------------------------------------5--|
A|----------------------------------------------------------|
E|----------------------------------------------------------|

e|-------------------------------------------------------------|
B|----------8--8-----8--8/10--8--------------------------------|
G|--7--7h9--------9--------------9/7--7/9--9/10--9--7/5--7-----|
D|----------------------------------------------------------5--|
A|-------------------------------------------------------------|
E|-------------------------------------------------------------|

                                     C    F          G

e|-----------------------------------8-------------------|
B|-----------------------------------8----6--5--6----8---|
G|-----------5---7--7/9/7---5-----5--9----5--5--5----7---|
D|----5---7--------------------7-----10---7--7--7----9---|
A|-----------------------------------10---8--8--8----10--|
E|-----------------------------------8-------------------|


C         Em                  Am            G
  Oh the light, the blessed light blinds us all
C           Em           Am                   G
  Comes and goes, no-one knows when they will fall
F      G      C               G               F
  Oh reckless love, don't you hang around my door
      G     C             G       Dm7
Leave me undone more than I was before
               G
So please stay away

e|-----------------------------------|
B|-----------------------------------|
G|-----------5---7--7/9/7---5-----5--|
D|----5---7--------------------7-----|
A|-----------------------------------|
E|-----------------------------------|



C       G       F           G      C      Em   F  G
  If I let you down, treat you unkind
C       G        F           G      C      Em  F  G
  No that's not me, just my second mind




C        Em                 Am                   G
  Oh the rose, the blushing rose, you waste your scent
C          Em                  Am                  G
  Upon the mold, they rise and fall, they came and went
F          G      C           G                 F
  But oh reckless love, just look what you have done
    G         C          G         Dm7
You push and shove, send me on the run
               G
So please stay away



e|-----------------------------------|
B|-----------------------------------|
G|-----------5---7--7/9/7---5-----5--|
D|----5---7--------------------7-----|
A|-----------------------------------|
E|-----------------------------------|



C       G       F           G      C      Em   F  G
  If I let you down, treat you unkind
C       G        F           G      C      Em  F  G
  No that's not me, just my second mind





Am        Em              F
I came to see you but the way was closed
   C             F         G
A picture frame around your neck
Am         Em                   F
I tried to reach you but you're so hard to hold
          C      F       G         G7
But your pride I must protect



e|-----------------------------------|
B|-----------------------------------|
G|-----------5---7--7/9/7---5-----5--|
D|----5---7--------------------7-----|
A|-----------------------------------|
E|-----------------------------------|


C       G       F           G      C      Em   F  G
  If I let you down, treat you unkind
C       G        F           G      C      Em  F  G
  No that's not me, just my second mind



Outro:

C        Em        F       Em   Dm  G         Repeat until fade-out





Tap to rate this tab
# A B C D E F G H I J K L M N O P Q R S T U V W X Y Z