Adam Heldring - Bear Town tab

Tuning: Standard tuning

Intro, verse and chorus

e|--------------3-----------------3--------------------------|
B|---------------4-----------------4-------------------------|
G|---------3h5----3h5-------3h5-----3------------------------|
D|------3h5--------------3h5---------------------------------|
A|----3----------------3-------------------------------------|
D|-----------------------------------------------------------|

e|--------------1-----------------3--------------------------|
B|---------------3-----------------4-------------------------|
G|---------1h3----3---------3h5-----3------------------------|
D|------1h3--------------3h5---------------------------------|
A|----1----------------3-------------------------------------|
D|-----------------------------------------------------------|

Pre-chorus

e|--------------3---------------1----------------------------|
B|---------------4---------------3---------------------------|
G|---------3h5----3---------1h3---3--------------------------|
D|------3h5--------------1h3---------------------------------|
A|----3----------------1-------------------------------------|
D|-----------------------------------------------------------|


Outro

e|--------------4---------------3-----1--1--------------3-1--|
B|-------------------------------------4--4-3--------------4-|
G|---------1h3-----------1h3------------------------1h3------|
D|------1h3------------1h3-----------------------1h3---------|
A|----1--------------1-------------------------1-------------|
D|-----------------------------------------------------------| 10x


http://www.adamheldring.com/
Tap to rate this tab
 
# A B C D E F G H I J K L M N O P Q R S T U V W X Y Z