Song name
# A B C D E F G H I J K L M N O P Q R S T U V W X Y Z

Adam Heldring - Bear Town tab

Tuning: standard with capo on 3rd fret
I'm not quite accurate with some parts but you'll figure it out.

Intro/verse

e|-------------0-----------------0-------------------------|
B|--------------1------------------1-----------------------|
G|----------2-----0h2--------2-------2---------------------|
D|------0h2--------------0h2-------------------------------|
A|----0----------------0-----------------------------------|
D|---------------------------------------------------------|

e|-----------------------------0---------------------------|
B|-------------0----------------1--------------------------|
G|---------------0-----------2---0h2-----------------------|
D|----------0------0------0h2------------------------------|
A|------0h2--------------0---------------------------------|
D|----3----------------------------------------------------|

Bridge

e|-------------0-------------------------1--0-0------------|
B|---------------1--------------0--------3--1-1------------|
G|----------0------0--------------0------2--2-2------------|
D|------0h2------------------0------0----0--3-3------------|
A|----3------------------0h2-------------------------------|
D|---------------------3-----------------------------------|

e|---------------------------------------------------------|
B|---------1-----------------------------------------------|
G|---------------------------------------------------------|
D|-----0h2---------0---------------------------------------|
A|---3----------0h2--0h2-0---------------------------------|
D|------------3--------------------------------------------|

Chorus

e|---------0----------------|------------0------------------|
B|----------1---------------|----------1--1----------1------|
G|-------2---2-----2--------|-------0h2----2------0---0-----|
D|---0h2--------0h2----0----|------3-----------0h2-----2----|
A|-0-----------0-------2----|-----------------3-------------|
D|---------------------3----|-------------------------------|

e|------------------------------0---------------------------|
B|-------------0-----------------1--------------------------|
G|---------------0-----------2----2-------------------------|
D|----------0------0------0h2-------------------------------|
A|------0h2--------------0----------------------------------|
D|----3-----------------------------------------------------|

Outro

e|-------------------------------------0--------------------|
B|-----6-------5-------3--3-------------3-1-----------------|
G|----0-0-----0-0-------5--5-4-------0----------------------|
D|---7---7---7---7----------------0h2-----------------------|
A|--8-------7--------------------3--------------------------|
D|----------------------------------------------------------|

e|--1-0-0-----------------------------0----------------------|
B|--3-1-1------1---------------------1-----------------------|
G|--2-2-2---------------------------2------------------------|
D|--0-3-3---0h2------0-------------2-------------------------|
A|---------3------0h2-0h2-0-------0--------------------------|
D|---------------3-------------------------------------------|
Tap to rate this tab
 
# A B C D E F G H I J K L M N O P Q R S T U V W X Y Z