Song name
# A B C D E F G H I J K L M N O P Q R S T U V W X Y Z

Adam Lambert - Whataya Want From Me tab

INTRO/VERSE
e|----------------------------------------|
B|----------------------------------------|
G|7-7-6-11-11-11-11------11-11-11-11------|
D|7-7-6-11-11-11-11-9-9--11-11-11-11-9-9--|
A|5-5-4-9--9--9--9--9-9--9--9--9--9--9-9--|
E|------------------7-7--------------7-7--|

CHORUS
e|----------------------------------------------------------------------------------|
B|----------------------------------------------------------------------------------|
G|7---11-9--------------------------------------------------------------------------|
D|7-7-11-9--------------------------------------------------------------------------|
A|5-7-9--7--------------------------------------------------------------------------|
E|--5-------------------------------------------------------------------------------|

SOLO
e|-----------------------|
B|12-10-8-7-5-7-12-10-8--|
G|-----------------------|
D|-----------------------|
A|-----------------------|
E|-----------------------|


You will have to figure out how many times you play each power chord in the chorus and 
strumming pattern but this is how i play it and it sounds good.
Tap to rate this tab
# A B C D E F G H I J K L M N O P Q R S T U V W X Y Z