Song name
# A B C D E F G H I J K L M N O P Q R S T U V W X Y Z

Adam Lambert - Whataya Want From Me tab

I'm pretty sure this is how it sounds...comment if there are any mistakes
Its in standard tuning

Into and verse... (play this up to the chorus)

7   can be replaced by    x
x                         12
x                         x
5                         x
x                         10
x                         x

e|--10--101010--9/--14141414-77--14141414-77-------|
B|--x---x-x-x---x/--x-x-x-x--xx--x-x-x-x--xx-------|
G|--x---x-x-x---x/--x-x-x-x--xx--x-x-x-x--xx-------|
D|--9---9-9-9---7/--12121212-55--12121212-55-------|
A|--------*-*--------------------------------------|
E|-------------------------------------------------|

Chorus

e|-------------------------------------------------|
B|-------------------------------------------------|
G|-------------------------444--/777777------------|
D|--22-2222--555--/777777--444--/777777------------|
A|--22-2222--555--/755555--222--/555555------------|
E|--00-0000--353--/555555--------------------------|

e|-------------------------------------------------|
B|-------------------------------------------------|
G|------------------444--/777777-------------------|
D|----555--/777777--444--/777777-------------------| x4
A|----555--/755555--222--/555555-------------------|
E|----333--/555555---------------------------------|

e|-------------------------------------------------|
B|-------------------------------------------------|
G|-------------------------------------------------|
D|----555--/777777---------------------------------| 
A|----555--/755555---------------------------------|
E|----333--/555555---------------------------------|

this is basically the entire song...until the solo

Solo

e|-------------------------------------------------|
B|-12--10-12---------------------------------------|
G|----------11--9-11-------------------------------|
D|-------------------12--11------------------------| x2
A|-------------------------12-9--------------------|
E|-------------------------------------------------|

these parts are repeated throughout the entire song, just as different times
Enjoy!
Tap to rate this tab
 
# A B C D E F G H I J K L M N O P Q R S T U V W X Y Z