Song name
# A B C D E F G H I J K L M N O P Q R S T U V W X Y Z

Adam Lambert - Whataya Want From Me tab

Whataya Want From Me by Adam Lambert


Intro/Verse:

|-10--10-09--14-14-14-14-7--14-14-14-14-7|
|-12--12-10--15-15-15-15-8--15-15-15-15-8|
|-11--11-11--14-14-14-14-7--14-14-14-14-7|
|----------------------------------------|
|----------------------------------------|
|----------------------------------------|

Chorus I

|------------------------------------------------|
|------------------------------------------------|
|-------------------------4-4-4-4-4-4-7-7-7-7-7-7|
|-5-5-5-5-5-5-7-7-7-7-7-7-4-4-4-4-4-4-7-7-7-7-7-7|
|-5-5-5-5-5-5-7-7-7-7-7-7-2-2-2-2-2-2-5-5-5-5-5-5|
|-3-3-3-3-3-3-5-5-5-5-5-5------------------------|

Chorus II

|------------------------------------------------------------|
|------------------------------------------------------------|
|-------------------------------------4-4-4-4-4-4-7-7-7-7-7-7|
|-17-17-17-17-17-17-19-19-19-19-19-19-4-4-4-4-4-4-7-7-7-7-7-7|
|-17-17-17-17-17-17-19-19-19-19-19-19-2-2-2-2-2-2-5-5-5-5-5-5|
|-15-15-15-15-15-15-17-17-17-17-17-17------------------------|

|--------------------------------------|
|--------------------------------------|
|-------------------------------------4|
|-17-17-17-17-17-17-19-19-19-19-19-19-4|
|-17-17-17-17-17-17-19-19-19-19-19-19-2|
|-15-15-15-15-15-15-17-17-17-17-17-17--|

Solo

|-7-5-7--------------|
|-------7-5-7--------|
|-------------7-6----|
|-----------------7-4|
|--------------------|
|--------------------|

Arrangement:
Intro/Verse x 5
Chorus I x 4
Chorus II x 1
Intro/Verse x 3
Chorus I x 4
Chorus II x 1
Solo x 2
Intro/Verse  x 1
Chorus I x 8
Chorus II x 1
Tap to rate this tab
 
# A B C D E F G H I J K L M N O P Q R S T U V W X Y Z