Guitaretab - guitar tabs
Song name
# A B C D E F G H I J K L M N O P Q R S T U V W X Y Z

Adam Lambert - Whataya Want From Me chords

Highlighted       Show chord diagrams
Adam Lambert: Whataya Want From Me

Here is the YOUTUBE vid that I transcribed this tab from.....

http://www.youtube.com/watch?v=UNOUi4JW_1w

Chords Used
   Am   G   C   C9?   F   Fmaj7
e|-0----3---0---0-----1---0------|
B|-1----3---1---1-----1---1------|
G|-2----0---0---0-----2---2------|
D|-2----0---2---0-----3---3------|
A|-0----2---3---3-----3---3------|
E|------3-------------1----------|

INTRO
    Hey     Slow    Down      What-A--Ya   Want  From  Me
e|--9-------9-xx----8---------13--13--13---13----5-----5------|
B|--11------11xx----9---------14--14--14---14----6-----6------|
G|--10------10xx----10--------13--13--13---13----5-----5------|
D|------------------------------------------------------------|
A|------------------------------------------------------------|
E|------------------------------------------------------------|

VERSE - I've shown the way you alternate between the "C" chords once below.
  Hey, slow it down whataya want from me?
  Am           G    C9 C  C9 C   F    F 
e|-0-----------3----0--0--0--0---1----1-----|
B|-1-----------3----1--1--1--1---1----1-----|
G|-2-----------0----0--0--0--0---2----2-----|
D|-2-----------0----0--2--0--2---3----3-----|
A|-0-----------2----3--3--3--3---3----3-----|
E|-------------3-----------------1----1-----|     

C9 C C9 C    F         G
Whataya want from me? 
Am         G    C9 C C9 C    F
Yeah Iím afraid whataya want from me? 
C9 C C9 C    F         G
Whataya want from me?

      Am                                   G 
There might have been a time   And I would give myself away 
C9CC9C F                C9CC9C F
  Oooh once  upon  a  time  I  didnít  give  a  damn 
    Am           G      C9 C C9  C   F
But now, here we are so Whataya want from me 
C9 C C9 C    F        G
Whataya want from me 
[ Tab from: http://www.guitaretab.com/a/adam-lambert/217530.html ]
CHORUS   
Fmaj7      G           Am    C          
     Just  donít give up Iím workin it out 
Fmaj7       G          Am          C          
     Please donít give in, I wonít let you down 
Fmaj7   G         Am         C          
     It messed me up, need a second to breathe 
Fmaj7          G        Am                     
     Just keep coming around                          
C            Fmaj7         G         Am           C     
Hey, whataya want from me?   Whataya want from me? 
        Fmaj7          G      
Whataya want from me?

VERSE
Am                  G                 C9    C C9  C     F
Yeah, itís plain to see (plain to see) that baby youíre beautiful
         C9 C C9 C     F           G    
And itís nothing wrong with you 
     Am        G                   C9 C C9 C  F
Itís me, Iím a freak           but thanks for loviní me 
          C C9 C  C9  F         G
Cause youíre doing it perfectly 
(it perfectly) 

      Am                                         G 
There might have been a time  When    I    would let you step away 
C9CC9C  F                  C9CC9C  F                   G
      I wouldnít even try  I think you could save my life 

CHORUS   
Fmaj7      G           Am    C          
     Just  donít give up Iím workin it out 
Fmaj7       G          Am          C          
     Please donít give in, I wonít let you down 
Fmaj7   G         Am         C          
     It messed me up, need a second to breathe 
Fmaj7          G        Am                     
     Just keep coming around                          
C            Fmaj7         G         Am           C     
Hey, whataya want from me?   Whataya want from me? 
        Fmaj7          G      
Whataya want from me?

BRIDGE - all power chords; I'll let yall figure out the timing here.
Play 4x
e|--------------------|
B|--------------------|
G|--------------------|
D|-3----5----7----10--|
A|-3----5----7----10--|
E|-1----3----5----8---|

Play INTRO again - 1x
No, I wont let you down

CHORUS   
Fmaj7      G          Am     C          
     Just  donít give up Iím workin it out 
Fmaj7       G          Am          C          
     Please donít give in, I wonít let you down 
Fmaj7   G         Am         C          
     It messed me up, need a second to breathe 
Fmaj7          G        Am                     
     Just keep coming around                          
C            Fmaj7         G         Am           C     
Hey, whataya want from me?   Whataya want from me? 
        Fmaj7                 G             Am
Whataya want from me? Whataya want from me?
Related for Whataya Want From Me chords
Whataya Want From Me chords by Adam Lambert