Song name
# A B C D E F G H I J K L M N O P Q R S T U V W X Y Z

Adam Lambert - Whataya Want From Me tab

#----------------------------------PLEASE NOTE--------------------------------#
#This file is the author's own work and represents their interpretation of the#
#song. You may only use this file for private study, scholarship, or research.#
#-----------------------------------------------------------------------------#
#-- File created with Instab - http://www.pconline.com/~smcarey/instab.html --#
#-----------------------------------------------------------------------------#

Author/Artist: Adam Lambert
Title: Whataya Want From Me
Transcribed by: Saverain

Standard Tuning

x scratching of muted strings

--------|-10---10--9----14-14-14-14-7-7---14-14-14-14-7-7---|-----------------|
--------|-x----x---x----x--x--x--x--x-x---x--x--x--x--x-x---|-----------------|
--------|-x----x---x----x--x--x--x--x-x---x--x--x--x--x-x---|-----------------|
--------|-9----9---7----12-12-12-12-5-5---12-12-12-12-5-5---|-----------------|
--------|---------------------------------------------------|-----------------|
--------|---------------------------------------------------|-----------------|
         Intro/Verse

--------|---------------|-----------------------------------------------------|
--------|---------------|-----------------------------------------------------|
--------|-4-4---4-4-4-4-|-----------------------------------------------------|
--------|-5-5---5-5-5-5-|-----------------------------------------------------|
--------|-5-5---5-5-5-5-|-----------------------------------------------------|
--------|-3-3---3-3-3-3-|-----------------------------------------------------|
         PreChorus

--------|------------------------------------------------|--------------------|
--------|-------------------------------------7--7--7--7-|--------------------|
--------|-4--4--4--4--6--6--6--6--4--4--4--4--7--7--7--7-|--------------------|
--------|-5--5--5--5--7--7--7--7--4--4--4--4--7--7--7--7-|--------------------|
--------|-5--5--5--5--7--7--7--7--2--2--2--2--5--5--5--5-|--------------------|
--------|-3--3--3--3--5--5--5--5--2--2--2--2-------------|--------------------|
         Chorus

--------|--------------------------------------------------------|------------|
--------|---------------------------------------------7--7--7--7-|------------|
--------|-12--12--12--12--14--14--14--14--4--4--4--4--7--7--7--7-|------------|
--------|-12--12--12--12--14--14--14--14--4--4--4--4--7--7--7--7-|------------|
--------|-10--10--10--10--12--12--12--12--2--2--2--2--5--5--5--5-|------------|
--------|-10--10--10--10--12--12--12--12--2--2--2--2-------------|------------|
        "Whataya want from me"

--------|---------|--|---------|--|-------------------------------------------|
--------|-7-7-7-7-|--|-8-8-8-8-|--|-------------------------------------------|
--------|---------|--|---------|--|-------------------------------------------|
--------|---------|4x|---------|4x|-------------------------------------------|
--------|---------|--|---------|--|-------------------------------------------|
--------|---------|--|---------|--|-------------------------------------------|
         Verse 2 Vibrate Throughout

--------|--7---5--7----------------------------|--|---------------------------|
--------|------------7---5---7-----------------|--|---------------------------|
--------|-----------------------7---6----------|--|---------------------------|
--------|-------------------------------7---4--|--|---------------------------|
--------|--------------------------------------|--|---------------------------|
--------|--------------------------------------|--|---------------------------|
         Solo
Tap to rate this tab
# A B C D E F G H I J K L M N O P Q R S T U V W X Y Z