Song name
# A B C D E F G H I J K L M N O P Q R S T U V W X Y Z

Adam Lambert - Whataya Want From Me chords

Highlighted       Show chord diagrams
Adam Lambert - Whatya Want From Me

Intro:
e|--8-------8-xx----7---------12--12--12---12----5-----5------|
B|--10------10xx----8---------13--13--13---13----6-----6------|
G|--9-------9-xx----7---------12--12--12---12----5-----5------|
D|------------------------------------------------------------|
A|------------------------------------------------------------|
E|------------------------------------------------------------|

Am       G    C           F         
Hey slow down whatya want from me?
C       F         
Whataya want from me? 
Am         G    C            F
Yeah I'm afraid whataya want from me? 
C            F         
Whataya want from me?

      Am                                   G 
There might have been a time   And I would give myself away 
C            F        C                F
  Oooh once  upon  a  time  I  didn't  give  a  damn 
    Am           G      C            F
But no,  here we are so Whataya want from me 
C            F        
Whataya want from me 

CHORUS   
Fmaj7      G           Am    C          
     Just  don't give up I'm workin it out 
Fmaj7       G          Am          C          
     Please don't give in, I won't let you down 
Fmaj7   G         Am         C          
     It messed me up, need a second to breathe 
Fmaj7          G        Am                     
     Just keep coming around  
(Single Strums)                        
C            Fmaj7         G         Am           C     
Hey, whataya want from me?   Whataya want from me? 
        Fmaj7          G      
Whataya want from me?

VERSE
Am                  G                 C                 F
Yeah, it's plain to see (plain to see) that baby you're beautiful
         C             F              
And it's nothing wrong with you 
     Am        G         C          F
It's me, I'm a freak but thanks for lovin' me 
          C           F         
Cause you're doing it perfectly 
(it perfectly) 

Bridge:
      Am                                         G 
There might have been a time  When    I    would let you step away 
C       F                  C       F                  
      I wouldn't even try  I think you could save my life 

CHORUS   
Fmaj7      G           Am    C          
     Just  don't give up I'm workin it out 
Fmaj7       G          Am          C          
     Please don't give in, I won't let you down 
Fmaj7   G         Am         C          
     It messed me up, need a second to breathe 
Fmaj7          G        Am                     
     Just keep coming around                          
C            Fmaj7         G         Am           C     
Hey, whataya want from me?   Whataya want from me? 
        Fmaj7          G      
Whataya want from me?

Bridge (re-done):
e|--8-------8-xx----7---------12--12--12---12----5-----5------|
B|--10------10xx----8---------13--13--13---13----6-----6------|
G|--9-------9-xx----7---------12--12--12---12----5-----5------|
D|------------------------------------------------------------|
A|------------------------------------------------------------|
E|------------------------------------------------------------|

e|--8-------8-xx----7---------12--12--12---12----5-----5------|
B|--10------10xx----8---------13--13--13---13----6-----6------|
G|--9-------9-xx----7---------12--12--12---12----5-----5------|
D|------------------------------------------------------------|
A|------------------------------------------------------------|
E|------------------------------------------------------------|

CHORUS   
Fmaj7      G          Am     C          
     Just  don't give up I'm workin it out 
Fmaj7       G          Am          C          
     Please don't give in, I won't let you down 
Fmaj7   G         Am         C          
     It messed me up, need a second to breathe 
Fmaj7          G        Am                     
     Just keep coming around                          
C            Fmaj7         G         Am           C     
Hey, whataya want from me?   Whataya want from me? 
        Fmaj7                 G             Am
Whataya want from me? Whataya want from me?
Tap to rate this tab
 
# A B C D E F G H I J K L M N O P Q R S T U V W X Y Z