Song name
# A B C D E F G H I J K L M N O P Q R S T U V W X Y Z

Adam Lambert - Never Close Our Eyes tab

So in music we have to figure out a song by ear, and I chose this. I'm not 
100% sure but I think this is right! Also, please rate - I only started to 
play guitar a few months ago and this is my first tab!

Song: Never Close Our Eyes
Album: Trespassing
Artist: Adam Lambert
Difficulty: Super Easy!

e)-------0---------------|-----------0------------|---------0--------------|
b)-0-3-3---2-2-2-0---2-0-|-0-3-3-3-3---2-2-------0|-0-3-3-3---2-2-2-0---2-0|
G)-----------------2-----|-----------------2-1-2--|-------------------2----|
D)-----------------------|------------------------|------------------------|
A)-----------------------|------------------------|------------------------|
E)-----------------------|------------------------|------------------------|

e)-----------0-2-0-------2----2----|
b)-------0-3-------3-2-0---00---3-2|
G)-2-2-2---------------------------|
D)---------------------------------|
A)---------------------------------|
E)---------------------------------|

Thanks guys xx
Tap to rate this tab
# A B C D E F G H I J K L M N O P Q R S T U V W X Y Z