Song name
# A B C D E F G H I J K L M N O P Q R S T U V W X Y Z

Adam Merrin - Still Alright tab

-------------------------------------------------------------------------------
			     STILL ALRIGHT - Adam Merrin
-------------------------------------------------------------------------------
Tabbed by: Coca30stmMCRFan

Tuning: Standard

This is basically the only two riffs in the whole thing. Occasionally the intro/verse 
riff is just completely strummed.

Intro/verses
e|---------------------------------------------------------------------------|
B|-4---4---4---4---4---4---4---4---4---4---4---4---4---4---4---4-------------|
G|---4---4---4---4---4---4---4---4---4---4---4---4---4---4---4---4-----------|
D|-----------------6-------6-------4-------4-------2-------2-----------------|
A|-2-------2-----------------------------------------------------------------|
E|---------------------------------------------------------------------------|

Chorus
e|---------/9--9--9--9------/2-2-2-2-2---------------------------------------|
B|---------/9--9--9--9/2-2-2/2-2-2-2-2---------------------------------------|
G|-1-1-1-1-/9--9--9--9/2-2-2/2-3-3-3-3---------------------------------------|
D|-2-2-2-2/11-11-11-11/2-2-2/2-4-4-4-4---------------------------------------|
A|-2-2-2-2-------------------------------------------------------------------|
E|---------------------------------------------------------------------------|
Tap to rate this tab
 
# A B C D E F G H I J K L M N O P Q R S T U V W X Y Z