Song name
# A B C D E F G H I J K L M N O P Q R S T U V W X Y Z

Adam Sandler - Grow Old With You tab

  VERSE 1,2,3:
e/--------------------------------------------------|
b/----0-22-2-333--555555---7-5---0-2-2-0-2-0-3-2----|
g/-----------------------------2----------------2---|
d/-222----------------------------------------------|
a/--------------------------------------------------|
E/--------------------------------------------------|

e/--0---0---0-0-0---------------0---0---------------------|
b/----------------3-2-3-2-3h2----------0--2-2-0-2-0-3-2---|
g/----2---2-------------------2--2---2------------------2-|
d/-0------------------------------------------------------|
a/--------------------------------------------------------|
E/--------------------------------------------------------|


tabbed by SHAWN RELOSA \m/
Tap to rate this tab
# A B C D E F G H I J K L M N O P Q R S T U V W X Y Z