Song name
# A B C D E F G H I J K L M N O P Q R S T U V W X Y Z

Adam Sandler - Grow Old With You tab

-------------------------------------------------------------------------------
			     GROW OLD WITH YOU
-------------------------------------------------------------------------------
Tabbed by: Dan Gabriel Constantino (@MrPapaGab)
E-mail: dan_gabriel14@yahoo.com / cossmoss0414@gmail.com

Tuning: STANDARD

CHORDS: A Bm C#m D E


e|----------------------------------------------------------------------------|
B|---------------------2---2---------------0-------3---3---3---------------3--|
G|-------------2-----------2-----------2---------------4---------------4------|
D|-0---0---0-------2---------------2-------------------------------4----------|
A|-------------0---------------0---------------2---------------2--------------|
E|----------------------------------------------------------------------------|

e|---------------------------------2---0--------------------------------------|
B|---------5---5---5-----------5---3---------------------------0-------2---2--|
G|---------6---------------6-------2-----------2-----------2---------------2--|
D|-----6---------------6-------------------0-----------0----------------------|
A|-4---------------4---------------0---------------0---------------0----------|
E|----------------------------------------------------------------------------|

e|----------------------------------------------------------------------------|
B|-2---2-----------0-----------0---2---3-------2-----------2---2------------2-|
G|-------------2---------------1-------------------2-------2-------------2----|
D|---------2---------------2---------------0--------------------------2-------|
A|-----0---------------2---------------0---------------0-----------0----------|
E|----------------------------------------------------------------------------|

e|------------------------------|
B|---------2---2---0------------|
G|---------2-------1-------1----|
D|-----2---------------2--------|
A|-0---------------2------------|
E|------------------------------|



e|----------------------------------------------------------------|
B|---------2---2---------------0-------3---3---3---------------3--|
G|-------------2-----------2---------------4---------------4------|
D|-----2---------------2-------------------------------4----------|
A|-0---------------0---------------2---------------2--------------|
E|----------------------------------------------------------------|

e|---------------------------------2---0--------------------------------------|
B|---------5---5---5-----------5---3---------------------------0-------2---2--|
G|---------6---------------6-------2-----------2-----------2---------------2--|
D|-----6---------------6-------------------0-----------0----------------------|
A|-4---------------4---------------0---------------0---------------0----------|
E|----------------------------------------------------------------------------|

e|----------------------------------------------------------------------------|
B|-2---2-----------0-----------0---2---3-------2-----------2---2------------2-|
G|-------------2---------------1-------------------2-------2-------------2----|
D|---------2---------------2---------------0--------------------------2-------|
A|-----0---------------2---------------0---------------0-----------0----------|
E|----------------------------------------------------------------------------|

e|--------------------------------|
B|-2---2---2---2------------------|
G|-2-------0---------------2------|
D|---------------------2----------|
A|-0---------------0--------------|
E|--------------------------------|


e|-2----------------------2-----------------------0---0---0------0------------------------------|
B|-3----------------------3-----------------------2-------2-------------2---3---2-----3----2----|
G|-2-------2---2------2---2-------2---2-------2---2-------2-------------------------------------|
D|-----0-----------0----------0-----------0---------------------------2------------0-----0------|
A|-0-----------0----------0-----------0-----------0-----------0-------------0-----------------0-|
E|----------------------------------------------------------------------------------------------|


e|----2----------------------2------------------------------------------------------------------|
B|----3----------------------3--------------------------2---2---2---2-----------2--3--2---------|
G|-0--2-------2---2------2---2-------2---2-------2----------2---------------2---------------2---|
D|--------0-----------0----------0-----------0--------------------------2----------------0------|
A|----0-----------0----------0-----------0-----------0--------------0--------------0----------0-|
E|----------------------------------------------------------------------------------------------|

e|----------------------------------------------------------------------------------------------|
B|-------2---2---2---2-----------0-------3---3---3---------------3-----------5---5---5---------5|
G|-0---------2---------------2---------------4---------------4-------------------6----------6---|
D|-----------------------2-------------------------------4---------------6---------------6------|
A|----0--------------0---------------2---------------2---------------4---------------4----------|
E|----------------------------------------------------------------------------------------------|



e|-2---0----------------------------------------------------------------------------------------|
B|-3---------------------------0-------2---2---2---2-----------0-----------0---2---3------2-----|
G|-2-----------2-----------2---0-----------2---------------2---------------1------------------2-|
D|---------0-----------0-------------------------------2---------------2--------------0---------|
A|-0---------------0---------------0---------------0---------------2---------------0------------|
E|----------------------------------------------------------------------------------------------|

e|----------------------------------------------------------------------------------------------|
B|-----2---2------------------------------------------------------------------------------------|
G|-----2---------------2---2---2---2---2---1---1h2----------------------------------------------|
D|-----------------2-------------------2-------2------------------------------------------------|
A|-0-----------0---------------0---------------0------------------------------------------------|
E|----------------------------------------------------------------------------------------------|


The End.

I hope you'll like it. Thankyou!

Tap to rate this tab
# A B C D E F G H I J K L M N O P Q R S T U V W X Y Z