Song name
# A B C D E F G H I J K L M N O P Q R S T U V W X Y Z

Adam Sandler - Kill Me tab

Help us improve GuitareTab! Take a short survey!
Kill me - Adam Sandler(wedding singer)


beginning
   E                  A
e|------------------------------------|
B|--------------------2---------------|
G|-1------------------2---------------|  
D|-2------------------2---------------|
A|-2----------------------------------|
E|-0----------------------------------|

E                          A
You   don't   know   how   much   I   need   you
E                            A
While   you're   near   me   I   don't   feel   blue
      E                        A
And   when   we   kissed   I   know   you   need   me   too
    E                                        A
I   can't   believe   I   found   a   love   that's   so   pure   and 

true
chorus
            B
e|------------------------------------|
B|------------------------------------|
G|-11111111-44444444-2222222222222222-|  
D|-22222222-44444444-2222222222222222-|
A|-22222222-22222222-2222222222222222-|
E|-00000000---------------------------|
           E           B    A
But   it   all   was   bull-sh*t
     E         B            A
It   was   a   god   damn   joke
      E          B            A
And   when   I   think   of   you  
    E            B         A
I   hope   you   fu**ing   choke 

Just repeat now




I hope that you're glad with what you've done to me
I lay in bed all day long feeling melancholy
You left me here all alone tears running constantly

Oh somebody kill me please 
Somebody kill me please 
I'm on my knees
Pretty pretty please
Kill me 
I want to die
Put a bullet in my head
Related for Kill Me tab