Guitaretab - guitar tabs
Song name
# A B C D E F G H I J K L M N O P Q R S T U V W X Y Z
Home / A / Add / Shot Down tab

Add - Shot Down tab

Nine Black Alps - Shot Down

Tabbed by Captain Planet (deanpesani@gmail.com)

Pretty sure this is accurate. You might have to work out the
rhythm for yourself but if you've heard the song then you will
have no problems with this tab. Enjoy, and please rate!


INTRO

e|------------------------------|
b|----8-8--8-8-8-8-8-888--------|
g|----6-6--6-6-6-6-6-666---x4---|
d|----7-7--7-7-7-7-7-777--------|
a|----x-x--x-x-x-x-x-xxx--------|
e|----5-5--5-5-5-5-5-555--------|


VERSE
                             x3 then                     both bars x2
e|-----------------------------|----------------------------------|
b|-----------------------------|----------------------------------|
g|-10--10-101010-------------|----11-11-11--------13------------|
d|-10--10-101010---7--7-7777-|----12-12-12--etc.--14------------|
a|--8---8--8-8-8----7--7-7777--|----12-12-12--------14------------|
e|--8---8--8-8-8----5--5-5555--|----10-10-10--------12------------|
                                                    slides up to the E 
                                                    the first time, not 
                                                    the 2nd.

REPEAT INTRO

REPEAT VERSE


Pre-Chorus

e|------------------------------------------------------------------|
b|--13-13-13--13-13--13-13-13--13-13-13---8-8--8-8-8-8-8------------|
g|--11-11-11--11-11--11-11-11--11-11-11---6-6--6-6-6-6-6------------|
d|--12-12-12--12-12--12-12-12--12-12-12---7-7--7-7-7-7-7-etc.-------|
a|--x--x--x---x--x---x--x--x---x--x--x----x-x--x-x-x-x-x------------|
e|--10-10-10--10-10--10-10-10--10-10-10---5-5--5-5-5-5-5------------|

e|---------------------------------------|
b|--13-13-13--13-13--13-13-13--13-13-13--|
g|--11-11-11--11-11--11-11-11--11-11-11--|
d|--12-12-12--12-12--12-12-12--12-12-12--|
a|--x--x--x---x--x---x--x--x---x--x--x---|
e|--10-10-10--10-10--10-10-10--10-10-10--|


CHORUS

e|--------------8---8-----8--------------|-------------------------------|
b|-10-10-x--10--8---8--x--8---9--9--x--9-|-------------------------------|
g|-10-10-x--10--9---9--x--9---9--9--x--9-|-------------------------------|
d|-10-10-x--10--10--10-x--10--9--9--x--9-|-7777-7/999-9/101010-10/121212-|
a|-8--8--x--8---10--10-x--10--7--7--x--7-|-xxxx-x/xxx-x/x-x-x--x-/x-x-x--|
e|-8--8--x--8---8---8--x--8---7--7--x--7-|-5555-5/777-7/8-8-8--8-/101010-|
                                          these octaves could be played
                                          an octave higher, I can't tell
[ Tab from: http://www.guitaretab.com/a/add/122540.html ]
e|--------------8---8-----8------------------------------------|
b|-10-10-x--10--8---8--x--8---9-9-9-9-9-9-9-9-9-9-9-9-9-9-9-9--|
g|-10-10-x--10--9---9--x--9---9-9-9-9-9-9-9-9-9-9-9-9-9-9-9-9--|
d|-10-10-x--10--10--10-x--10--9-9-9-9-9-9-9-9-9-9-9-9-9-9-9-9--|
a|-8--8--x--8---10--10-x--10--7-7-7-7-7-7-7-7-7-7-7-7-7-7-7-7--|
e|-8--8--x--8---8---8--x--8---7-7-7-7-7-7-7-7-7-7-7-7-7-7-7-7--|
 |
e|-------------------------------------------------------------|
b|-------------------------------------------------------------|
g|-------------------------------------------------------------|
d|-----------Gtr.II-----------6-6-6-6-7-7-7-7-8-8-8-8-9-9-9-9--|
a|----------------------------x-x-x-x-x-x-x-x-x-x-x-x-x-x-x-x--|
e|----------------------------4-4-4-4-5-5-5-5-6-6-6-6-7-7-7-7--|


REPEAT INTRO


SOLO (VERSE chords underneath)

    v-bend 7th fret to 9th, release then pull off to 5th
e|----------------------------------------------------------------|
b|----------------------------------------------------------------|
g|--7b9r7p5----5---5~--7b9r7p5---5---5~--7b9r7p5---5---5~---------|
d|----------7----7-------------7---7-------------7---7------------|
a|----------------------------------------------------------------|
e|----------------------------------------------------------------|

e|----------------------------------------------------------------|
b|--5---5-5-5-5-5-5-5---5-5-5-----10----10--10/13\10--------------|
g|--5h7-7-7-7-5-5-5-5h7-7-7-7-9---12b14-14------------------------|
d|----------------------------------------------------------------|
a|----------------------------------------------------------------|
e|----------------------------------------------------------------|
                                        ^-hold the bend and hit the G+B strings

e|----------------------------------------------------------------|
b|--10----10--10/13\10---10----10--10/13\10---10----10--15\10-10--|
g|--12b14-14-------------12b14-14-------------12b14-14------------|
d|----------------------------------------------------------------|
a|----------------------------------------------------------------|
e|----------------------------------------------------------------|


e|----------------------------------------------------------------|
b|--10----10--10/13\10---10----10--10-----------------------------|
g|--12b14-14-------------12b14-14-----12-9\-----------------------|
d|----------------------------------------------------------------|
a|----------------------------------------------------------------|
e|----------------------------------------------------------------|


e|----------------------------------------------------------------|
b|--5---5-5-5-5-5-5-5---5-5-5-5-5-5-------------------------------|
g|--5h7-7-7-7p5-5-5-5h7-7-7-7p5-5-5-------------------------------|
d|----------------------------------------------------------------|
a|----------------------------------------------------------------|
e|----------------------------------------------------------------|


REPEAT PRE-CHORUS

REPEAT CHORUS

REPEAT INTRO (x3 instead of x4, and end on A7)



Thanks, hope you have fun with this song.
Related for Shot Down tab