Guitaretab - guitar tabs
Song name
# A B C D E F G H I J K L M N O P Q R S T U V W X Y Z

Add - Mr Suit And Tie tab

intro

e--0---0---0---0---0------------------|
B-5-5-4-4-2-2-0-0---------------------|
G-----------------2-2-1-2-1-----------|
D--------------------------2----------|
A-------------------------------------|
E-------------------------------------|
(he also does other variations of the riff)
           Repeat

verse

e-------------------------------------------------------------------------|
B-------------------------------------------------------------------------|
G-------------------------------------------------------------------------|
D----------9-9-9-----------------------------9-9--------------------------|
A-11-9--11-7-7-7-6-11-9-11-4-4-4-6-6-11-9-11-7-7-6-6-9-9-9-9-9-9-9-9------|
E-9--7--9--------4-9--7-9--2-2-2-4-4--9-7-9------4-4-7-7-7-7-7-7-7-7------|

           Repeat
[ Tab from: http://www.guitaretab.com/a/add/97652.html ]
e--0---0---0---0---0-----------------------------------------------|
B-5-5-4-4-2-2-0-0--------------------------------------------------|
G-----------------2-2-1-2-1----------------------------------------|
D------------------------------------------------------------------|
A---------------------------7-6-4-2--------------------------------|
E---------------------------5-4-2-0--------------------------------|

e------------------------------------------------------------------|
B------------------------------------------------------------------|
G------------------------------------------------------------------|
D-9-9-9-8-8-8-6-6-6-6-6-6------------------------------------------|
A-7-7-7-6-6-6-4-4-4-4-4-4-7-7-7-7-6-4-2----------------------------|
E-------------------------5-5-5-5-4-2-0----------------------------|

                Repeat a lot
thats pretty much it
Related for Mr Suit And Tie tab