Song name
# A B C D E F G H I J K L M N O P Q R S T U V W X Y Z

Addict - Teenage Angel tab

Teenage Angel
by Addict
Album: Stones (1998)

   G                 C
e -3-----2-----2-----3-----2-----2-------|
B ---3-----3-----3-----3-----3-----3-----|
G -----0-----0-----------0-----0---------|
D ---------------------------------------|
A ---------------------------------------|
E ---------------------------------------|

   Em                C
e -3-----2-----2-----3-----2-----2-------|
B ---3-----3-----3-----3-----3-----3-----|
G -----0-----0-----------0-----0---------|
D ---------------------------------------|
A ---------------------------------------|
E ---------------------------------------|

   A                 G
e -3-----2-----2-----3-----2-----2h3-----|
B ---3-----3-----3-----3-----3-----------|
G -----0-----0-----------0-----0---------|
D ---------------------------------------|
A ---------------------------------------|
E ---------------------------------------|


A          x02220
Asus       x02230
A7sus4     x02233
G          320033
C          030210
D          000232
Dsus4      000233
Em         022000
Em7        022033
Bm         x24432

G             Em7
She's in love but she doesn't know
Cadd9             D
What she needs or how to let go
G          Em7
Feels like being married
Cadd9             D
She was too young to miscarry

She says
G          Cadd9
Bye bye my childhood dream man
Em7            Cadd9
I will keep in touch if I can
A7sus4                  Cadd9
Spent the best years of my life with you

G
Happens every time
Em7
You start to lose yourself
Cadd9
You turn to blame the one
D
That loves you the most
G
to stay and work it out
Em7
is harder than to run away
Cadd9
so she leaves a note
D
because to his face she couldn't say

G          Cadd9
Bye bye my childhood dream man
Em7            Cadd9
I will keep in touch if I can
A7sus4               Cadd9           G
Spent the best years of my life with you

Bm   C         A    Asus    A
Hold on if you can
C    D     Dsus4    D
Hold on

G             Em7
So all things fade away in time
Cadd9
But what was once so bright
D
Somehow no longer shines
G
Caught the pain at last
Em7
Thought he was the one
Cadd9
Thought she had the strength
D
to hold on

G          Cadd9
Bye bye my childhood dream man
Em7            Cadd9
I will keep in touch if I can
A7sus4               Cadd9           G
Spent the best years of my life with you

G          Cadd9
Bye bye my teenage angel
Em7                  Cadd9
I don't know how the spell was broken
A7sus4                Cadd9                G
I don't know what I'm doing, but I'll miss you
A7sus4                Cadd9                G
I don't know what I'm doing, but I'll miss you
A7sus4                Cadd9                G
I don't know what I'm doing, but I'll miss you

Tabbed by gg@jixal.com
Tap to rate this tab
# A B C D E F G H I J K L M N O P Q R S T U V W X Y Z