Song name
# A B C D E F G H I J K L M N O P Q R S T U V W X Y Z

Adeaze - Getting Stronger tab

Intro/chorus
|---------x-------5--x------9--x--------x--------x---------x-|
|------7--x---5---5--x--6------x---7-7--x---0-0--x--0-hp1--x-|
|------7--x---6---6--x--7------x---7-7--x---0-0--x--0------x-|
|------7--x---7------x---------x--------x---0-0--x---------x-|
|--5------x----------x--7------x---5-5--x------------------x-|
|---------x---5------x---------x--------x---3----x--3------x-|

|-------------------2--x--3--x--------------------------|
|-----33--x-2-3-x---3--x--3--x--2-----------------------|
|----------------------------x--2-----------------------|
|-------------------0--x-----x------taptap--------------|taptaptap
|--0--00--x-0-0-x------x-----x--0-----------------------|
|----------------------x--3--x--------------------------|


Verse:D A Em7 D A Bm7 G A repeat
Pre Chorus:Em7 D A D A G D slide d chord from 2nd fret to 4th and back
           Em7 D A D A G A

tab by mel john peralta
Tap to rate this tab
# A B C D E F G H I J K L M N O P Q R S T U V W X Y Z