Adeaze - E Otua tab

----------------------------------------------------------------------------
			   E OTUA - ADEAZE 
----------------------------------------------------------------------------
Tabbed by: cookie monster
Email: tongan_tittan@hotmail.com       Sorry don't know the intro or the
                                       in the middle into. 
                                       This is only the verses
                                       and chorus.
Tuning: Standard          
 
  C                                 F
e|--------0-----------------0-----------------1---------------1------------|
B|-1---1-----1-------1----1----1-----1-----1-----1----1----1-----1---------|
G|---0---------0--------0---------0-----2----------2-----2---------2-------|
D|-------------------------------------------------------------------------|
A|-3-----------------3-----------------------------------------------------|
E|-----------------------------------1----------------1--------------------|

   C                               G
e|-------0----------------0--------------3---------------3----------------|
B|-1---1---1-------1----1---1------0---0---0------0----0---0--------------|
G|---0-------0--------0-------0------0-------0-------0-------0------------|
D|------------------------------------------------------------------------|
A|-3---------------3------------------------------------------------------|
E|---------------------------------3--------------3-----------------------|
   C                                 F
e|--------0-----------------0-----------------1---------------1-----------|
B|-1---1-----1-------1----1----1-----1-----1-----1----1----1-----1--------|
G|---0---------0--------0---------0-----2----------2-----2---------2------|
D|------------------------------------------------------------------------|
A|-3-----------------3----------------------------------------------------|
E|-----------------------------------1----------------1-------------------|
   C                               G              C
e|-------0----------------0--------------3---------------0----------------|
B|-1---1---1-------1----1---1------0---0---0------1----1---1--------------|
G|---0-------0--------0-------0------0-------0-------0-------0------------|
D|------------------------------------------------------------------------|
A|-3---------------3------------------------------3-----------------------|
E|---------------------------------3--------------------------------------|


:D Longbay!
Tap to rate this tab
 
# A B C D E F G H I J K L M N O P Q R S T U V W X Y Z