Song name
# A B C D E F G H I J K L M N O P Q R S T U V W X Y Z

Adeaze - A Life With You tab

Adeaze
Album: Always & For Real
Song: A Life With You


Intro

e|------------5----|-------------2---|--4-----------4--|-----------------|
B|--7--------------|--3--------------|--5--------------|--2--------------|
G|--6--------------|--2--------------|--4--------------|--1--------------|
D|--7--------------|--4--------------|--6--------------|--2--------------|
A|--5--------------|--2--------------|--4--------------|-----------------|
E|-----------------|-----------------|-----------------|-----------------|x2

Pre-Verse
e|--5--------------|--4--------------|--2--------------|-----------------|
B|--7--------------|--5--------------|--3--------3-----|-----0------2----|
G|--6--------------|--4--------------|--2-------2------|----1-------1----|
D|--7--------------|--6--------------|--4------4-------|---2--------2----|
A|--5--------------|--4--------------|--2-----2--------|--2--------------|
E|-----------------|-----------------|-----------------|-----------------|x2

Verse 
e|-----------------|-----------------|-----------------|-----------------|
B|-----3-----------|-----3-----------|-----3-----------|---3------0---2--|
G|----2------------|----2------------|----2------------|--2------1----1--|
D|---4-------------|---4-------------|---4-------------|-4------2-----2--|
A|--2--------------|-----------------|-----------------|------2----------|
E|-----------------|-----------------|-----------------|-----------------|x3

e|--5--------------|--4--------------|--2--------------|-----------------|
B|--7--------------|--5--------------|--3--------3-----|-----0------2----|
G|--6--------------|--4--------------|--2-------2------|----1-------1----|
D|--7--------------|--6--------------|--4------4-------|---2--------2----|
A|--5--------------|--4--------------|--2-----2--------|--2--------------|
E|-----------------|-----------------|-----------------|-----------------|

Needs a bit more work. Got any comments hbc_skater@msn.com.
 
!Westlake!
Tap to rate this tab
 
# A B C D E F G H I J K L M N O P Q R S T U V W X Y Z