Song name
# A B C D E F G H I J K L M N O P Q R S T U V W X Y Z

Adebisi Shank - Colin Skehan tab

E----------------------------|------------------------------|
B----------------------------|------------------------------|
G----------------------------|--------11---------11--9------|
D--------9---------9--7------|--9--7------9--12---------12--|
A---7-------7--10--------10--|------------------------------|
E----------------------------|------------------------------|

E--------------------------|---------------------------------|
B--------------------------|---------------------------------|
G-----9--9--------9--7-----|---------------------------------|
D--7--------7--9--------9--|------12--12----------12---------|
A--------------------------|--10----------10--12---------12--|
E--------------------------|---------------------------------|
 
E---------------------------|------------------------------|
B---------------------------|------------------------------|
G---------------------------|--------11---------11--9------|
D-------9---------9--7------|--9--7------9--12---------12--|
A--7-------7--10--------10--|------------------------------|
E---------------------------|------------------------------|
 
    
E--------------------------|---------------------------------||
B--------------------------|---------------------------------||
G-----9--9--------9--7-----|---------------------------------||
D--7--------7--9--------9--|------12--12----------12---------||
A--------------------------|--10----------10--12---------12--||
E--------------------------|---------------------------------||
Tap to rate this tab
 
# A B C D E F G H I J K L M N O P Q R S T U V W X Y Z