Song name
# A B C D E F G H I J K L M N O P Q R S T U V W X Y Z

Adele - My Same tab

Other tabs have the right chords, but if you're interested, here are the actual notes:

Verse:
  Em    D      B7   Em     
e|---x-----x--|---x-----x--|
B|--8x----7x--|--7x----8x--|
G|--9x----7x--|--8x----9x--|
D|---x-----x--|---x-----x--|
A|7--x-----x--|6--x-7---x--|
E|---x--10-x--|---x-----x--|
(slap thumb against strings on x's)

Chorus:
  Em           Ebm          Dm           Dbm
e|------------|------------|------------|------------|
B|--8---------|--7---------|--6---------|--5---------|
G|--9---------|--8---------|--7---------|--6---------| x2
D|------------|------------|------------|------------|
A|7-----------|6-----------|5-----------|4-----------|
E|------------|------------|------------|------------|

  C
e|------------|------------|
B|5-----------|------------|
G|5-----------|------------|
D|------------|------------|
A|3-----------|------------|
E|------------|------------|

Happy playing.
Tap to rate this tab
 
# A B C D E F G H I J K L M N O P Q R S T U V W X Y Z