Adele - Lovesong chords

Highlighted       Show chord diagrams
-------------------------------------------------------------------------------
			     Love Song - Adele (The Cure cover)
-------------------------------------------------------------------------------
Tabbed by: michaelscofield
Email: -

Tuning: Standard

NOTE: This tab is based on this live version: http://www.youtube.com/watch?v=_k8vtbJxOdw

You can add slaps as desired, as well as little licks as in the video (mainly the 
hammer-on w/middle finger of B string from 3rd to 4th fret).

Verse: Cm7, Gm, G#, G
e|---------------------------------------------------------------------------|
B|--4--3--4--3---------------------------------------------------------------|
G|--3--3--5--4---------------------------------------------------------------|
D|--5--5--6--5---------------------------------------------------------------|
A|--3------------------------------------------------------------------------|
E|-----6--4--3---------------------------------------------------------------|

Chorus: G#, Fm7, Cm7, Gm
e|---------------------------------------------------------------------------|
B|--4--1--4--3---------------------------------------------------------------|
G|--5--1--3--3---------------------------------------------------------------|
D|--6--1--5--5---------------------------------------------------------------|
A|--------3------------------------------------------------------------------|
E|--4--1-----6---------------------------------------------------------------|
Tap to rate this tab
 
# A B C D E F G H I J K L M N O P Q R S T U V W X Y Z