Song name
# A B C D E F G H I J K L M N O P Q R S T U V W X Y Z

Adele - Someone Like You tab

-------------------------------------------------------------------------------
			     SOMEONE LIKE YOU - Adele
-------------------------------------------------------------------------------
Tabbed by: 225Tracey
Email: monkeydodo96@hotmail.com

Tuning: e B G D Ab E

    A                               A/Ab
e|------0-------0-------0-------0-------0-------0-------0-------0----|
B|----2---2---2---2---2---2---2---2---2---2---2---2---2---2---2---2--|
G|-------------------------------------------------------------------|
D|-------------------------------------------------------------------|
A|--1-------1-------1-------1-------0-------0-------0-------0--------|
E|-------------------------------------------------------------------|

    F#m                             D
e|------2-------2-------2-------2-------2-------2-------2-------2----|
B|----2---2---2---2---2---2---2---2---3---3---3---3---3---3---3---3--|
G|-------------------------------------------------------------------|
D|----------------------------------0-------0-------0-------0--------|
A|-------------------------------------------------------------------|
E|--2-------2-------2-------2----------------------------------------|

If you want to keep standard tuning,
you can still play the A/Ab arpeggio by playing E string fourth fret, instead of 
playing the A string
This just works better for my small hands :) 
Tap to rate this tab
 
# A B C D E F G H I J K L M N O P Q R S T U V W X Y Z