Adele - Someone Like You tab

this is my first tab and i was messing around 1 evening and saw no1 had put it up so i 
think it sounds good to go:)play with a capo whereva suits you........enjoy:D







Adele - Someone like you

---3--------------|---2-------------|---0----------|---3-----------|
------2-----2-----|------2----2-----|------2----2--|------3----3---|
---------0--------|---------0-------|---------2----|---------2-----|
------------------|-----------------|--------------|---------------|
------------------|-----------------|--------------|---------------|
------------------|-----------------|--------------|---------------|
         x4              x4                x4             x4
play as intro and throughout verse util 'i hate to turn up...

---0----------|---3-----------|---3----------|---x-------------|
-----2-----2--|------3---3----|-----2-----2--|-----------------|
--------2----|---------2-----|--------0-----|---0--------------|
--------------|---------------|--------------|------2----2-----|
--------------|---------------|--------------|---------3-------|
--------------|---------------|--------------|-----------------|
     x2              x2             x2
then back to what you play as intro/verse and play through chorus again

then ffor 'nothing compares'

---0----------|---3---------|---3---------|---3-------------|
------2----2--|------3----3-|------2----2-|-----0----0------|
---------0----|---------0---|---------0---|-------2---------|
--------------|-------------|-------------|-----------------|
--------------|-------------|-------------|-----------------|
--------------|-------------|-------------|-----------------|
     x2 roughly     x2           x2            x2

enjo rate and comment thaks a mil lads;)Eoin
Tap to rate this tab
 
# A B C D E F G H I J K L M N O P Q R S T U V W X Y Z