Adele - Rolling In The Deep tab

#----------------------------------PLEASE NOTE--------------------------------#
#This file is the author's own work and represents their interpretation of the#
#song. You may only use this file for private study, scholarship, or research.#
#-----------------------------------------------------------------------------#
#-- File created with Instab - http://www.pconline.com/~smcarey/instab.html --#
#-----------------------------------------------------------------------------#

Author/Artist: Adele
Title: Rollin In The Deep
p.m. palm mute
x scratch

--------|-----------------------------------|---------------------------------|
--------|-----------------------------------|---------------------------------|
--------|-----------------------------------|---------------------------------|
--------|-x-x-x-x-x-x-x-x-x-x-x-x-x-x-10-10-|---------------------------------|
--------|-x-x-x-x-x-x-x-x-x-x-x-x-x-x-10-10-|---------------------------------|
--------|-8-8-8-8-8-8-8-8-8-8-8-8-8-8-8--8--|---------------------------------|
    Heavy P.M.

--------|-----------------------------------------------------------------|---|
--------|-----------------------------------------------------------------|---|
--------|-----------------------------------------------------------------|---|
--------|-x-x-x-x-x-x-x-x-x-x-x-x-x-x-x-x-x-x-x-x-x-x-x-x-x-x-x-x-x-x-x-x-|---|
--------|-x-x-x-x-x-x-x-x-x-x-x-x-x-x-x-x-x-x-x-x-x-x-x-x-x-x-x-x-x-x-x-x-|---|
--------|-8-8-8-8-8-8-8-8-8-3-3-3-3-3-3-3-6-6-6-6-6-6-6-6-3-3-3-3-6-6-6-6-|---|
    Verse Heavy P.M.  (Cm G A# G A#)

--------|-4----------------------------------------------------------------|--|
--------|-4----------------------------------------------------------------|--|
--------|-5-------------------------------7--3-----------------------------|--|
--------|-6--------------8----------------8--5-----------------------------|--|
--------|-6--------------8----------------8--5-----------------------------|--|
--------|-4--------------6-------------------------------------------------|--|
  G# A# Gm "The scars of your love remind me of us.  They keep me thinkings

--------|-----------------------4-----------------------------------------|---|
--------|-----------------------4---------4----4-4------------------------|---|
--------|--------------------4--5---------5----5-5-7-------------------7--|---|
--------|--------------------5--6---------6----6-6-8-------------------8--|---|
--------|--------------------5--6------------------8-------------------8--|---|
--------|-----------------------4-----------------------------------------|---|
  G G# A# that we almost had it all.  The scars of your love they keep me


--------|-------------------------------------------------------------|-------|
--------|-------------------------------------------------------------|-------|
--------|--3--------------------3----4---------4------4--------4------|-------|
--------|--5-------------------------5---------5------5--------5------|-------|
--------|--5-------------------------5---------5------5--------5------|-------|
--------|-------------------------------------------------------------|-------|
  Gm  G    breathless.  I can't help feeling.     We  could of had it


--------|--------------------------------------------------------------------|
--------|--------------------------------------------------------------------|
--------|--------------------------------------------------------------------|
--------|-x-x-x-x-x-x-x-x-x-x-x-x-x-x-x-x-x-x-x-x-x-x-x-x-x-x-x-x-x-x-x-x-x--|
--------|-x-x-x-x-x-x-x-x-x-x-x-x-x-x-x-x-x-x-x-x-x-x-x-x-x-x-x-x-x-x-x-x-x--|
--------|-8-8-8-8-8-8-8-8-8-3-3-3-3-3-3-3-3-4-4-4-4-4-4-4-4-4-4-4-4-6-6-6-6--|
     Chorus (Cm Gm G# A#)


--------|------------------------------------|--------------------------------|
--------|------------------------------------|--------------------------------|
--------|------------------------------------|--------------------------------|
--------|------------------------------------|--------------------------------|
--------|------------------------------------|--------------------------------|
--------|------------------------------------|--------------------------------|
    Chorus 2 (Cm Gm G# A# Cm     A#        )
Tap to rate this tab
 
# A B C D E F G H I J K L M N O P Q R S T U V W X Y Z