Song name
# A B C D E F G H I J K L M N O P Q R S T U V W X Y Z

Adele - Set Fire To The Rain chords

Highlighted       Show chord diagrams
Intro:

   (x.x.0.10.10.x)    | (x.8.x.10.10.x) |
-----------------------------------------------------|
-10-------10------10------10--------10-----11--10--8-|
------10-------10--------------10--------------------|
-0--0----0---0---------------------------------------|
--------------------------8--8----8------------------|
-----------------------------------------------------|


     (x.x.10.9.8.x)     |   (x.10.12.12.11.10)
--------------------------------------------------|
----8-----------8-----------11---------11---------|
-----------9---------9-----------12--12--12--12---|
----10--10---10---10---------------12------12-----|
----------------------------10--------------------|
--------------------------------------------------|

Verse:

   (x.x.0.10.10.x)    | (x.8.x.10.10.x) |
-----------------------------------------------------|
-10-------10------10------10--------10-----11--10--8-|
------10-------10--------------10--------------------|
-0--0----0---0---------------------------------------|
--------------------------8--8----8------------------|
-----------------------------------------------------|


     (x.x.10.9.8.x)     |   (x.10.12.12.11.10)
--------------------------------------------------|
----8-----------8-----------11---------11---------|
-----------9---------9-----------12--12--12--12---|
----10--10---10---10---------------12------12-----|
----------------------------10--------------------|
--------------------------------------------------|



   (x.x.0.10.10.x)    | (x.8.x.10.10.x) |
-----------------------------------------------------|
-10-------10------10------10--------10-----11--10--8-|
------10-------10--------------10--------------------|
-0--0----0---0---------------------------------------|
--------------------------8--8----8------------------|
-----------------------------------------------------|

       (x.x.10.9.8.x)   | (x.x.10.10.8.x) |
---------------------------------------------------|
-----8-----------8---------------------------------|
------------9---------9------10----10--10--9-------|
-----10--10---10---10------------10--10------10----|
---------------------------------------------------|
---------------------------------------------------|


Verse:

I let it fall, my heart,
And as it fell, you rose to claim it,
It was dark and I was over,
Until you kissed my lips and you saved me,

My hands, they're strong,
but my knees were far too weak,
To stand in your arms
without falling to your feet,


Refrain:
               Bb                 Gm
But there's a side to you that I never knew, never knew,
          Dm
All the things you'd say, they were never true, never true,
         Bb                            C
And the games you'd play, you would always win, always win,


Chorus:
           Dm
But I set fire to the rain,
            C
Watched it pour as I touched your face,
           Gm
Well, it burned while I cried,
                                      Dm          C
'Cause I heard it screaming out your name, your name,


Verse:

When lay with you
I could stay there, close my eyes,
feel you here forever,
You and me together, nothing is better,


Refrain:
               Bb                 Gm
But there's a side to you that I never knew, never knew,
          Dm
All the things you'd say, they were never true, never true,
         Bb                            C
And the games you'd play, you would always win, always win,


Chorus:
           Dm
But I set fire to the rain,
            C
Watched it pour as I touched your face,
           Gm
Well, it burned while I cried,
                                      Dm          C
'Cause I heard it screaming out your name, your name,
       Dm
I set fire to the rain,
            C
And I threw us into the flames,
         Gm
Well, I felt something die,
                                      Bb             C
'Cause I knew that that was the last time, the last time,


Bridge:
          Bb                F
Sometimes I wake up by the door,
               Am                       C
And heard you calling, must be waiting for you,
      Bb                     F
Even now when we're already over,
         Am                       C
I can't help myself from looking for you,


Chorus:
           Dm
But I set fire to the rain,
            C
Watched it pour as I touched your face,
           Gm
Well, it burned while I cried,
                                      Dm          C
'Cause I heard it screaming out your name, your name,
       Dm
I set fire to the rain,
            C
And I threw us into the flames,
         Gm
Well, I felt something die,
                                      Bb            C
'Cause I knew that that was the last time, the last time,


(same chords as last chorus)
Oh, no,
Let it burn, oh,
Let it burn,
Let it burn.
Tap to rate this tab
# A B C D E F G H I J K L M N O P Q R S T U V W X Y Z