Song name
# A B C D E F G H I J K L M N O P Q R S T U V W X Y Z

Adele - Set Fire To The Rain tab

for the whole song, check here:
http://tabs.ultimate-guitar.com/a/adele/set_fire_to_the_rain_ver9_crd.htm

Intro:

   (x.x.0.10.10.x)    | (x.8.x.10.10.x) |
-----------------------------------------------------|
-10-------10------10------10--------10-----11--10--8-|
------10-------10--------------10--------------------|
-0--0----0---0---------------------------------------|
--------------------------8--8----8------------------|
-----------------------------------------------------|


     (x.x.10.9.8.x)     |   (x.10.12.12.11.10)
--------------------------------------------------|
----8-----------8-----------11--------11----------|
-----------9---------9-----------12--------12-----|
----10--10---10---10----------12----12--12---12---|
----------------------------10--------------------|
--------------------------------------------------|

Verse:

   (x.x.0.10.10.x)    | (x.8.x.10.10.x) |
-----------------------------------------------------|
-10-------10------10------10--------10-----11--10--8-|
------10-------10--------------10--------------------|
-0--0----0---0---------------------------------------|
--------------------------8--8----8------------------|
-----------------------------------------------------|


     (x.x.10.9.8.x)     |   (x.10.12.12.11.10)
--------------------------------------------------|
----8-----------8-----------11--------11----------|
-----------9---------9-----------12--------12-----|
----10--10---10---10----------12----12--12---12---|
----------------------------10--------------------|
--------------------------------------------------|



   (x.x.0.10.10.x)    | (x.8.x.10.10.x) |
-----------------------------------------------------|
-10-------10------10------10--------10-----11--10--8-|
------10-------10--------------10--------------------|
-0--0----0---0---------------------------------------|
--------------------------8--8----8------------------|
-----------------------------------------------------|

       (x.x.10.9.8.x)   | (x.x.10.10.8.x) |
---------------------------------------------------|
-----8-----------8---------------------------------|
------------9---------9------10----10--10--9-------|
-----10--10---10---10------------10--10------10----|
---------------------------------------------------|
---------------------------------------------------|
Tap to rate this tab
# A B C D E F G H I J K L M N O P Q R S T U V W X Y Z