Song name
# A B C D E F G H I J K L M N O P Q R S T U V W X Y Z

Adele - Set Fire To The Rain tab

Adele - Set Fire to the Rain

Salut, vous trouverez la vidéo associé à cette
tablature sur ma chaîne youtube ( Pseudo: Ipsaous )

Capo 5ème case

Couplet : A faire 4 fois en alternant les 2 derniers accords

    Am
|---0--------------0-----------0---|
|-----------1--------------1-------|
|--------2----2--------2-----------|
|----------------------------------|
|---0------------------------------|
|----------------------------------|

   C
|----------------0h1p0-------------|
|----------1-------------3---------|
|-------0----0---------------------|
|----------------------------------|
|---3------------------------------|
|----------------------------------|

    G
|----------------------------------|
|----------0----3----0-------------|
|-------0----0----0----------------|
|----------------------------------|
|----------------------------------|
|---3------------------------------|

    Dm
|---1------------------1p0-------0---|
|---------------3------------3-------|
|-----------2------2-----------------|
|-------0----------------------------| Faire ça la 1ere et 3ème fois
|------------------------------------|
|------------------------------------|

   Am"
|------------------------------------|
|--1------------1-----1p0-----0------|
|------------0-----0-------2---------|
|------------------------------------| Faire ça la 2ème et 4ème fois
|------------------------------------|
|------------------------------------|


Pre chorus :

    F
|---------------|
|---------0-----|
|------2----2---|
|---3-----------| X2
|---------------|
|---------------|

    Dm
|---------------|
|---------3-----|
|------2----2---| X2
|---0-----------|
|---------------|
|---------------|

    Am
|----------------|
|----------0-----|
|-------2----2---| X2
|----2-----------|
|----------------|
|----------------|
    Am
|----------------|
|----------1-----|
|-------2----2---|
|----2-----------| X2
|----------------|
|----------------|
     F
|------------------|
|----------0-------|
|-------2----2-----| X2
|----3-------------|
|------------------|
|------------------|
     G
|------------------------------|
|----------0----------0--------|
|-------0----0-----0----0------|
|------------------------------|
|------------------------------|
|----3-----------3---------3---|



Refrain : ( Pour la rythmique je fais : B HB HHB BH )

           Am
But I set fire to the rain,
            G
Watched it pour as I touched your face,
           F
Well, it burned while I cried,
                                    Am(Dm ?)       G
'Cause I heard it screaming out your name, your name,
       Am
I set fire to the rain,
            G
And I threw us into the flames,
         F
Well, I felt something die,
                                     Am(Dm ?)          G
'Cause I knew that that was the last time, the last time,


Pont :

          F               C
Sometimes I wake up by the door,
               Em                     G
And heard you calling, must be waiting for you,
     F                    C
Even now when we're already over,
         Em                        G
I can't help myself from looking for you,


Finir en jouant le refrain. Ecoutez la chanson
pour voir comment placer les différentes parties ;).
Tap to rate this tab
 
# A B C D E F G H I J K L M N O P Q R S T U V W X Y Z