Song name
# A B C D E F G H I J K L M N O P Q R S T U V W X Y Z

Adele - Rolling In The Deep tab

Really easy and really good song, enjoy it.

Guitar 1 - acoustic
Guitar 2 - electric

Guitar 1:

Intro

    C5(x8)
e|------------|
B|------------|
G|------------| 
D|--10101010--| x4
A|--10101010--|
E|--8-8-8-8---|

Verse

    C5(x8)           G#5(x8)  A#5(x8)  G5(x5) A#5(x3)
e|------------------------------------------------|
B|------------------------------------------------|
G|------------------------------------------------| 
D|--1010101010101010-66666666-88888888-55555-888--| x4
A|--1010101010101010-66666666-88888888-55555-888--| 
E|--8-8-8-8-8-8-8-8--44444444-66666666-33333-666--|

Pre Chorus

    G#5(x8)  A#5(x8)  G5(x8)   G#5(x8)
e|---------------------------------------|
B|---------------------------------------|
G|---------------------------------------| 
D|--66666666-88888888-55555555-66666666--| x4
A|--66666666-88888888-55555555-66666666--|
E|--44444444-66666666-33333333-44444444--|

Chorus

    C5(x8)   A#5(x8)  G#5(x12)       A#5(x4)
e|------------------------------------------|
B|------------------------------------------|
G|--55555555-88888888-66666666-6666-8888----| 
D|--55555555-88888888-66666666-6666-8888----| x4
A|--33333333-66666666-44444444-4444-6666----|
E|------------------------------------------|

Guitar 2:

Verse 3 solo

Throw your soul through every open door
Count your blessings to find what you look for

e|-----------------------------------------|
B|---------------------------12b13---------|
G|---------------------------11b12---------|
D|-----------------------------------------|
A|-----------------------------------------|
E|-----------------------------------------|

Turn my sorrow into treasured gold
You pay me back in kind and reap just what you sow

e|-----------------------------------------------------|
B|--------------------------4---6---8---11---13---13~--|
G|------------------------------------------------12~--|
D|-----------------------------------------------------|
A|-----------------------------------------------------|
E|-----------------------------------------------------|



Thats it, hope you liked.
Tap to rate this tab
# A B C D E F G H I J K L M N O P Q R S T U V W X Y Z