Song name
# A B C D E F G H I J K L M N O P Q R S T U V W X Y Z

Adele - Someone Like You tab

This is my first tab but i believe it is correct..

--------------0-----------------------------|
----------2---------2-----------------------|
-----2--------------------------------------|     X4
--------------------------------------------|
--------------------------------------------|
--------------------------------------------|


-------------0-----------------------------|
---------2----------2----------------------|
----1--------------------------------------|    X4
-------------------------------------------|
-------------------------------------------|
-------------------------------------------|

------------2-----------------------------|
--------2--------2------------------------|
------------------------------------------|   X4
----4-------------------------------------|
------------------------------------------|
------------------------------------------|

------------2----------------------------|
--------3--------3-----------------------|
----2------------------------------------|   X4
-----------------------------------------|
-----------------------------------------|
-----------------------------------------|

For this end part i just hold a D chord and pick the strings
Tap to rate this tab
# A B C D E F G H I J K L M N O P Q R S T U V W X Y Z